Meet me there (Everlasting Summer) Guitar Tab

Submitted: Jun 15, 2019 by olenellus (Last updated: Jun 23, 2019)

0
Download | Listen
Game: Everlasting Summer
Composer(s): Sergey Eybog
Style: Arrangement, Artificial harmonics, Natural harmonics, Tapped harmonics

AutoScroll: Slow | Medium | Fast
Title: Meet me there
Game: Everlasting summer [Бесконечное лето]
Composed by: S. Eybog [С. Ейбог]
Initial arrangement by: A. Mayorov [А. Майоров]
Rearranged, completed, and tabulated by: A. Zadorin [А. Задорин]
2019

The original track by S. Eybog: https://www.youtube.com/watch?v=VoOz1plrE6k

The original arrangement by A. Mayorov: https://www.youtube.com/watch?v=WtpLb3SUMPo

This arrangement retains what is contained in Mayorov's arrangmenet with a correction of
the harmony in measures 25-26 and 33-32. The part with chord strumming, which has nothing to
do with the original, is removed. Instead, the proper introduction, bridge, and ending are
added. Some minor corrections are also applied to viarious parts.

(The attached ZIP-file contains this tablature, a sheet music, and the GNU LilyPond
source file for the sheet music.)

********************************************************************************************

[Introduction]

Andante (E = 170 bpm)
    CpV-------------------------------------------------------------------------------|
6/8 E     E   E   E   E   Q          H.                         Q.          Q       H
e|-----|-5<17>---5<17>------------|--------------------------|--------------------------|
B|-----|------6------8<20>--------|--------------------------|-------------5<17>--------|
G|-----|-----------------5<17>----|--L-----------------------|-7<19>--------------------|
D|--7--|--------------------------|--------------------------|----------------------7---|
A|-----|--------------------------|--------------------------|--------------------------|
E|-----|--------------------------|--------------------------|--------------------------|
   mp

4   CpV-------------------------------------------------------------------------|
    E   E   E   E   Q          H.                         Q.          Q       H
e|-5<17>---5<17>------------|--------------------------|--------------------------|
B|------6------8<20>--------|--------------------------|--------------------------|
G|-----------------5<17>----|--L-----------------------|--------------------------|
D|--------------------------|--------------------------|-9<21>-------5<17>----7---|
A|--------------------------|--------------------------|--------------------------|
E|--------------------------|--------------------------|--------------------------|

7   CpV-------------------------------------------------------------------------|
    E   E   E   E   Q          H.                         Q.          Q       H
e|-5<17>---5<17>------------|--------------------------|--------------------------|
B|------6------8<20>--------|--------------------------|-------------5<17>--------|
G|-----------------5<17>----|--L-----------------------|-7<19>--------------------|
D|--------------------------|--------------------------|----------------------7---|
A|--------------------------|--------------------------|--------------------------|
E|--------------------------|--------------------------|--------------------------|

10  CpV----------------------------------------------|
    E   E   E   E   Q          H.                     9/8 Q.          H.
e|-5<17>---5<17>------------|--------------------------|--------------------------------------||
B|------6------8<20>--------|--------------------------|-0<12>--------------------------------||
G|-----------------5<17>----|--L-----------------------|-------------0<12>--------------------||
D|--------------------------|--------------------------|--------------------------------------||
A|--------------------------|--------------------------|--------------------------------------||
E|--------------------------|--------------------------|--------------------------------------||
                               rit.__________________________________________________________


[Part 1]

    A tempo
13
6/8 E E E E E E   E E E E E E   E E E E E E   E E E E E E
e|------------0-|-----------0-|-----------0-|-----------0-|
B|--1-----0-----|-1-----0-----|-1-----0-----|-1-----0-----|
G|------2-------|-----2-------|-----2-------|-----2-------|
D|----3-----2---|---3-----2---|---3-----2---|---3-----2---|
A|--------------|-------------|-------------|-------------|
E|--------------|-------------|-------------|-------------|

17
    E E E E E E   E E E E E E   E E E E E E   E E E E E E
e|------------0-|-----------0-|-----------0-|-----------0-|
B|--1-----0-----|-1-----0-----|-1-----0-----|-1-----0-----|
G|------2-------|-----2-------|-----2-------|-----2-------|
D|----3-----2---|---3-----2---|---3-----2---|---3-----2---|
A|--0-----------|-L-----------|-0-----------|-L-----------|
E|--------------|-------------|-------------|-------------|

21  CpV----------------------|  CVIII
    E E E E E E   E E E E E E   E E E E E E   E E E E E E
e|--8-----5-----|-7-----------|-8-----------|-------------|
B|----------5---|-------5-----|------10-----|12-----------|
G|------5-----5-|-----5---5---|----10--10---|------10-----|
D|----7---------|---7-------7-|--10------10-|----10--10---|
A|--0-----------|-L-----------|-8-----------|-L-8-------8-|
E|--------------|-------------|-------------|-------------|

25
    E E E E E E   E E E E E E   E E E E E E   E E E E E E
e|--8-----5-----|-7---------0-|-0---------0-|-----------0-|
B|------6---6---|-------6-----|-------0-----|-1-----0-----|
G|----7-------7-|-----7---7---|-----2-------|-----2-------|
D|--0-----------|---7-------0-|---2-----2---|---2-----2---|
A|--------------|-------------|-0-----------|-L-----------|
E|--------------|-------------|-------------|-------------|

29  CpV----------------------|  CVIII
    E E E E E E   E E E E E E   E E E E E E   E E E E E E
e|--8-----5-----|-7-----------|-8-----------|-------------|
B|----------5---|-------5-----|------10-----|12-----------|
G|------5-----5-|-----5---5---|----10--10---|------10-----|
D|----7---------|---7-------7-|--10------10-|----10--10---|
A|--0-----------|-L-----------|-8-----------|-L-8-------8-|
E|--------------|-------------|-------------|-------------|

33
    E E E E E E   E E E E E E   E E E E E E   E E E E E E
e|--8-----5-----|-7-----------|-0---------0-|-----------0-||
B|------6---6---|-------6---8-|-------0-----|-1-----0-----||
G|----7-------7-|-----7---7---|-----2-------|-----2-------||
D|--0-----------|---7-------0-|---2-----2---|---2-----2---||
A|--------------|-------------|-0-----------|-L-----------||
E|--------------|-------------|-------------|-------------||


[Bridge]

37
    E E E E E E    E E E Q   E    E E E E E E    E E E Q   E
e|--------7-----|--7-----5-----|--------8-----|--8----10---0-|
B|----5h6---6p5-|----6p5-----5-|----5h6---6p5-|----6p5-------|
G|--------------|--------------|--------------|--------7-----|
D|--7-----------|--------------|--7-----------|--------------|
A|--------------|--------------|--------------|--------------|
E|--------------|--------------|--------------|--------------|

41
    E E E E E E    E E E Q   E    E E E E E E    E E E Q   E
e|--------------|--------------|--------------|------------0-||
B|--------0-----|--0-----------|--------1-----|--1-----3-----||
G|--2-----------|--------2-----|--2-----------|--------------||
D|----2h3---3p2-|----3p2-----2-|----2h3---3p2-|----3p2-------||
A|--0-----------|--------------|--0-----------|--------------||
E|--------------|--------------|--------------|--------------||


[Part 2]

45
    E   E   E   E   E   E      E   E   E   E   E   E      E   E   E   E   E   E      E   E   E   E   E   E
e|----------------0<12>-----|----------------0<12>-----|----------------0<12>-----|--------------------------|
B|------------0<12>---0<12>-|------------0<12>---0<12>-|------------0<12>---0<12>-|-----------1<13>-0<12>----|
G|--------2<14>-------------|--------2<14>-------------|--------2<14>-------------|--------2<14>-------2<14>-|
D|----2<14>-----------------|----2<14>-----------------|----2<14>-----------------|----2<14>-----------------|
A|--0-----------------------|--------------------------|--------------------------|--------------------------|
E|--------------------------|--4-----------------------|--3-----------------------|--2-----------------------|

49
    E   E   E   E   E   E      E   E   E   E   E   E      E   E   E   E   E   E      E   E   E   E   E   E
e|----------------0<12>-----|----------------0<12>-----|----------------0<12>-----|--------------------0<12>-|
B|------------0<12>---0<12>-|------------0<12>---0<12>-|------------0<12>---0<12>-|-----------1<13>-0<12>----|
G|--------2<14>-------------|--------2<14>-------------|--------2<14>-------------|--------2<14>-------------|
D|----2<14>-----------------|----2<14>-----------------|----2<14>-----------------|----2<14>-----------------|
A|--0-----------------------|--------------------------|--------------------------|--------------------------|
E|--------------------------|--4-----------------------|--3-----------------------|--2-----------------------|

53
    E E E E E E    E E E E E E    E E E E E E    E E E E E E
e|----------0---|----------0---|----------0---|--------------|
B|--------0---0-|--------0---0-|--------0---0-|--------1p0---|
G|------2-------|------2-------|------2-------|------2-----2-|
D|----2---------|----2---------|----2---------|----2---------|
A|--0-----------|--------------|--------------|--------------|
E|--------------|--4-----------|--3-----------|--2-----------|

57
    E E E E E E    E E E E E E    E E E E E E    E E E E E E
e|----------0---|----------0---|----------0---|------------0-||
B|--------0---0-|--------0---0-|--------0---0-|--------1p0---||
G|------2-------|------2-------|------2-------|------2-------||
D|----2---------|----2---------|----2---------|----2---------||
A|--0-----------|--------------|--------------|--------------||
E|--------------|--4-----------|--3-----------|--2-----------||


[Conclusion]

61
    E E E E E E    E E E E E E    E E E E E E    E E E E E E
e|------0---0---|----0---7---0-|------0---0---|----0---8---0-|
B|--------8-----|------8---8---|--------8-----|------8---8---|
G|----7-------7-|--------------|----7-------7-|--------------|
D|--------------|--7-----------|--------------|--7-----------|
A|--0-----------|--------------|--0-----------|--------------|
E|--------------|--------------|--------------|--------------|

65
    E E E E E E    E E E E E E    E  E  E  E  E  E     H.
e|------0---0---|----0---7---0-|-----0--------8-10--|--5<17>--------------||
B|--------8-----|------8---8---|--------8-10--------|--5<17>--------------||
G|----7-------7-|--------------|--------------------|--5<17>--------------||
D|--------------|--7-----------|--7-----------------|---------------------||
A|--0-----------|--------------|--------------------|---------------------||
E|--------------|--------------|--------------------|---------------------||
                                  rit.______________________

********************************************************************************************

Comments on artificial harmonics.

1) If there are no frets 20 and 21 on your guitar, just find the corresponding spot on
   the string to play the introduction.

2) The chord in the last measure can be played in two different ways.

   i) It can be played as a tapped harmonics simultaneously on three strings by tapping with
      the straight finger i.

   ii) It can be arpeggiated with strumming harmonics. For examle, one can use p finger to
       strum and i finger to stop the vibration. If p finger is put in such a way that it is
       slightly lower (in the from the 6th to the 1st strig) than i finger, then by moving
       this hand construct from the 3rd string to the 1st one always touching the 17th fret
       with i finger an arpeggio of the Am chord will be played by harmonics.

********************************************************************************************

A. Mayorov in his video plays measures 25-26 and 33-34 as follows:

25  CV--------------------|            33  CV----------------------|
    E E E E E E   E E E E E E              E E E E E E   E E E E E E
e|--8-----5-----|-7---------0-|        e|--8-----5-----|-7-----------|
B|----------5---|-------6-----|        B|----------5---|-------6---8-|
G|------5-----5-|-----5---5---|        G|------5-----5-|-----5---5---|
D|----7---------|---7---------|        D|----7---------|---7---------|
A|--5-----------|-------------|        A|--5-----------|-------------|
E|--------------|-------------|        E|--------------|-------------|

It sounds good, but the harmony is not the one from the original.

********************************************************************************************

Notation

Above the staff:
n          - measure number n
x/y        - time signature
H          - half note
Q          - quarter note
E          - eighth note
N.         - dotted note
CN         - full bar at fret N
CpN        - partial bar at fret N

On the staff:
h          - hammer-on (upward legato)
p          - pull-off (downward legato)
L          - tied note (where it is not obvious)
N< M>       - artificial harmonic fretted at fret N with vibration stopped at fret M
0< N>       - natural harmonic on fret M played with the artificial harmonic technique

Below the staff:
mp         - dynamics (volume)
rit.       - ritardando (slow down)
Login or Register to remove this ad.