Ads

The First Campaign (Etrian Odyssey III: The Drowned City) Guitar Tab

Submitted: Nov 07, 2011 by Kiku

4.75
Average: 4.8 (4 votes)
Download | Listen
Game: Etrian Odyssey III: The Drowned City
Composer(s): Yuzo Koshiro
Style: Alternate picking, Transcription
Series: Etrian Odyssey

This song is also called Uijin

AutoScroll: Slow | Medium | Fast
The First Campaign (Uijin)
Etrian Odyssey III: The Drowned City (Sekaiju no Meikyuu 3: Seikai no Raihousha)
Composed by Yuzo Koshiro
Tabbed by Kiku
2011-11-06

BPM: 185

Not to be confused with the battle theme from Etrian Odyssey II, which has the
same song title.

As always, I recommend the .gp5 file.


                              The First Campaign                                


Lead Guitar
     E  E  S S E  S S S S E  S S    S S E  S S S S E  S S S S S S  
E||------------------------------|------3-------------------------|
B||--6--3--5---6--5---3---6--3---|--5------6---5---6--5---3-------|
G||------------------------------|----------------------------5---|
D||------------------------------|--------------------------------|
A||------------------------------|--------------------------------|
E||------------------------------|--------------------------------|


  E  S S S S E  S S S S E  S S    S S E  S S S S E  S S S S S S  
--5------3---5--3-------5------|--3---6--5---3---5--3-----------|
-----6--------------6------6---|------------------------6---5---|
-------------------------------|--------------------------------|
-------------------------------|--------------------------------|
-------------------------------|--------------------------------|
-------------------------------|--------------------------------|


  Q.     Q.     Q       H.           Q         E  E  S S S S Q.     E   
--8------7-----------|--------------------||---------------------------|
----------------8----|--------------------||-----------------8------6--|
---------------------|--7-----------------||*--------5---7-------------|
---------------------|--------------------||*-----7--------------------|
---------------------|--------------------||---------------------------|
---------------------|--------------------||---------------------------|


  Q    Q.     Q.        H        E  E  S S E     Q.     H        E   
---------------------|------------------------|---------------------|
--L------------------|------------------------|---------------------|
-------7------5------|-----------------5------|---------------------|
---------------------|--7--------L---------5--|--L------3-----------|
---------------------|------------------------|---------------------|
---------------------|------------------------|---------------------|


  E  E  S S S S Q.     E     Q    Q.     Q.        H        E  E  S  S E   
--------------------------|--------------8------|--5--------L-----5h-6-5--|
----------------8------6--|--L------------------|-------------------------|
--------5---7-------------|-------7-------------|-------------------------|
-----7--------------------|---------------------|-------------------------|
--------------------------|---------------------|-------------------------|
--------------------------|---------------------|-------------------------|


  Q.     H        E     E  E  S S S S Q.     E     Q    Q.     Q.      
--L------------------|--------------------------|---------------------|
---------8-----------|----------------8------6--|--L------------------|
---------------------|--------5---7-------------|-------7------5------|
---------------------|-----7--------------------|---------------------|
---------------------|--------------------------|---------------------|
---------------------|--------------------------|---------------------|


  H        E  E  S S E     Q.     H        E     E  E  S S S S Q.     E   
------------------------|---------------------|--------------------------|
------------------------|---------------------|----------------8------6--|
-----------------5------|---------------------|--------5---7-------------|
--7--------L---------5--|--L------3-----------|-----7--------------------|
------------------------|---------------------|--------------------------|
------------------------|---------------------|--------------------------|


  Q    Q.     Q.        H        E  E  S  S E     Q.     H        E   
--------------8------|--5--------L-----5h-6-5--|--L------------------|
--L------------------|-------------------------|---------8-----------|
-------7-------------|-------------------------|---------------------|
---------------------|-------------------------|---------------------|
---------------------|-------------------------|---------------------|
---------------------|-------------------------|---------------------|


  E  E  E  E  E  E  E  E     Q    E  Q    Q    E     E  E  E  E  E  E  E  E   
--------5-----------------|-----------------------|--------5-----------------|
--6--8--------------------|-----------------------|--6--8--------------------|
-----------7-----7--5--7--|--L-------5----7-------|-----------7-----7--5--7--|
--------------------------|-------7---------------|--------------------------|
--------------------------|-----------------------|--------------------------|
--------------------------|-----------------------|--------------------------|


  Q    E  Q    Q    E     E  E  E  E  E  E  E  E     Q    E  Q    Q    E   
-----------------------|--------5-----------------|-----------------------|
-----------------------|--6--8--------------------|-----------------------|
--L--------------------|-----------7-----7--5--7--|--L-------5----7-------|
-------7--5----7-------|--------------------------|-------7---------------|
-----------------------|--------------------------|-----------------------|
-----------------------|--------------------------|-----------------------|


  E  E  E  E  E  E  E   E     Q     E  E  E  E   S S S S  
--------5-----------8--10--|--L--------------------------|
--6--8---------------------|-------10--8-------------8---|
-----------7-----7---------|-----------------7--10-------|
---------------------------|-----------------------------|
---------------------------|-----------------------------|
---------------------------|-----------------------------|


   Q.     Q.     E  E      Q.     Q.     Q        Q.     Q.     E  E   
-----------------------|----------------------|-----------------------|
--10------8------------|----------------------|--10------8------------|
-----------------7-----|--10------7-----------|-----------------7-----|
-----------------------|----------------------|-----------------------|
-----------------------|----------------------|-----------------------|
-----------------------|----------------------|-----------------------|


   Q.     Q.     Q        E   S S S S  E  S S S S E  S S  
----------------------|----------------------------------|
----------------------|--11--10---8---10--8---6---8--6---|
--10------7-----------|----------------------------------|
----------------------|----------------------------------|
----------------------|----------------------------------|
----------------------|----------------------------------|


  S S E  S S S S E  S S S S S S    E  E  E  E  E  E  E  E   
--------------------------------|--------------------------|
--5---6--5---3---5--3---1-------|--------------------------|
----------------------------3---|--------------------------|
--------------------------------|--2--2-----2--2-----2--2--|
--------------------------------|--0--0-----0--0-----0--0--|
--------------------------------|--------------------------|


                                    PM  PM      PM  PM      PM  
  E  E  E  E  E  E  E  E        E   E   E   E   E   E   E   E   
---------------------------||----------------------------------|
---------------------------||----------------------------------|
--------------------------*||--12----------10----------12------|
--------------3--2--0-----*||----------10----------10----------|
--------0--3-----------3---||------10----------10----------10--|
-----3---------------------||----------------------------------|


   PM      PM  PM      PM      PM         PM  PM      PM  PM      PM  
   E   E   E   E   E   E   E   E      E   E   E   E   E   E   E   E   
----------------------------------|----------------------------------|
----------------------------------|----------------------------------|
------10----------12------10------|--12----------10----------12------|
--10----------10------------------|----------10----------10----------|
----------10----------10------10--|------10----------10----------10--|
----------------------------------|----------------------------------|


   PM      PM  PM      PM      PM                                       
   E   E   E   E   E   E   E   E      E    E    E   S E.   E   S S  E   
----------------------------------|------------------------------------|
----------------------------------|--10h--11p--10----------------------|
------10----------12------10------|----------------10------------------|
--10----------10------------------|-----------------------10--12---10--|
----------10----------10------10--|------------------------------------|
----------------------------------|------------------------------------|


  H        E   E   S S  S S     E   E   E   S E.   E   Q     
----------------------------|---------------------10--------|
----------------------------|--10--11--10-------------13----|
------------------10---12---|--------------10---------------|
--L-----------10------------|-------------------------------|
----------------------------|-------------------------------|
----------------------------|-------------------------------|


                            PM  PM      PM  PM      PM  
  H.           Q        E   E   E   E   E   E   E   E   
--------------------|----------------------------------|
--L-----------------|----------------------------------|
--------------------|--12----------10----------12------|
--------------------|----------10----------10----------|
--------------------|------10----------10----------10--|
--------------------|----------------------------------|


   PM      PM  PM      PM      PM         PM  PM      PM  PM      PM  
   E   E   E   E   E   E   E   E      E   E   E   E   E   E   E   E   
----------------------------------|----------------------------------|
----------------------------------|----------------------------------|
------10----------12------10------|--12----------10----------12------|
--10----------10------------------|----------10----------10----------|
----------10----------10------10--|------10----------10----------10--|
----------------------------------|----------------------------------|


   PM      PM  PM      PM      PM                                       
   E   E   E   E   E   E   E   E      E    E    E   S E.   E   S S  E   
----------------------------------|------------------------------------|
----------------------------------|--10h--11p--10----------------------|
------10----------12------10------|----------------10------------------|
--10----------10------------------|-----------------------10--12---10--|
----------10----------10------10--|------------------------------------|
----------------------------------|------------------------------------|


  H        E   E   S S  S S     E   S S  S S  E   E   E   E   E   
----------------------------|--10------------10------13--12------|
--------------10--11---10---|------13------------13----------13--|
----------------------------|-----------10-----------------------|
--L-------------------------|------------------------------------|
----------------------------|------------------------------------|
----------------------------|------------------------------------|


  H        E   E   E   E     E   E   E   E   E   E   E   E   
--------------------------|---------------------------------|
--L-----------10--11--13--|--L----------13----------13------|
--------------------------|-----10--12------10--12------10--|
--------------------------|---------------------------------|
--------------------------|---------------------------------|
--------------------------|---------------------------------|


   E   E   E   E  E   E   E   E     E   E   E   E   E   E   E   E   
------10-------------------------|---------------------------------|
----------13-----------------13--|--L----------13----------13------|
--12----------10-----10--12------|-----10--12------10--12------10--|
---------------------------------|---------------------------------|
---------------------------------|---------------------------------|
---------------------------------|---------------------------------|


   E   E   E   E  E   E   E   E      Q     E  E  E   S E.   E   
------10-------------------------|-----------------------------|
----------13---------10--11--13--|---L---------------------13--|
--12----------10-----------------|--------10-----9--10---------|
---------------------------------|-----------------------------|
---------------------------------|-----------------------------|
---------------------------------|-----------------------------|


   H        E   E   E   E      Q     E  E   E   S E.   E   
-------------------10------|--------13-----12-------------|
---L-----------13------13--|---L---------------13-----10--|
---------------------------|------------------------------|
---------------------------|------------------------------|
---------------------------|------------------------------|
---------------------------|------------------------------|


   E   E   E   Q     E  E   E      E  E   E   E  E   E   E  E   
----------10-------------------|-------------------------------|
---L--11------13---------------|--13---------13---------13-----|
--------------------10--9--10--|------9--10------9--10------9--|
-------------------------------|-------------------------------|
-------------------------------|-------------------------------|
-------------------------------|-------------------------------|


   E   E   E   E  E   E  E   E      E  E   E   E  E   E   E  E   
----------10--------------------|-------------------------------|
------13------13----------------|--13---------13---------13-----|
--10-----------------10--9--10--|------9--10------9--10------9--|
--------------------------------|-------------------------------|
--------------------------------|-------------------------------|
--------------------------------|-------------------------------|


   E   E   E   E  E   E   E   E     Q     E  E  E   S E.   E   
----------10---------------------|----------------------------|
------13------13-----10--11--13--|--L---------------------13--|
--10-----------------------------|-------10-----9--10---------|
---------------------------------|----------------------------|
---------------------------------|----------------------------|
---------------------------------|----------------------------|


  H        E   E   E   E      Q     E  E   E   E  E   E   
------------------10------|--------13-----15---------17--|
--L-----------13------13--|---L---------------13---------|
--------------------------|------------------------------|
--------------------------|------------------------------|
--------------------------|------------------------------|
--------------------------|------------------------------|


  E   S S  S S  Q     E   E   E     H        E   Q     E   
--L--18---17---15----18--17------|------------------------|
-----------------------------18--|--L--------L--------18--|
---------------------------------|--------------17--------|
---------------------------------|------------------------|
---------------------------------|------------------------|
---------------------------------|------------------------|


  E   S S  H        Q        H         E  E   S   S  E   
-----15------------------|-------------------15h-16-15--|
--L-------18-------------|--18---------L----------------|
-------------------------|------------------------------|
-------------------------|------------------------------|
-------------------------|------------------------------|
-------------------------|------------------------------|


  S S  E  E   S S  S   S  E   E   S S    E   E      H.            
--L---13-----13---13h-15-13--15--13---|--------------------------|
--------------------------------------|-----13--13g15------------|
--------------------------------------|--------------------------|
--------------------------------------|--------------------------|
--------------------------------------|--------------------------|
--------------------------------------|--------------------------|


  S  S  S  S  S  S  S  S  S  S  S  S  S  S  S  S  
-------13----------------------------------------|
--L-13----15-13----15-13-------13----------------|
----------------14-------14-------14-------12----|
----------------------------15-------15-12----15-|
-------------------------------------------------|
-------------------------------------------------|


   S  S  S  S  S  S  S  S  S  S  S  S  S  S  S  S  
--------------------------------------------------|
--------------------------------------------------|
--------------------------------------------12-14-|
--12-------------------12-------12-15-12-15-------|
-----15-12-------12-15----12-15-------------------|
-----------15-13----------------------------------|


   S  S  S  S  S  S  S  S  S  S  S  S  S  S  S  S   
--------------13----13-15-17-13-15-17-20-17-20-22-||
--------13-15----15-------------------------------||
-----14-------------------------------------------||
--15----------------------------------------------||
--------------------------------------------------||
--------------------------------------------------||




Duration Legend
---------------
W - whole
H - half
Q - quarter
E - 8th
S - 16th
T - 32nd
X - 64th
. - note dotted
|-n-|  - n-tuplets


Tablature Legend
----------------
L - tied note
x - dead note
g - grace note
(n) - ghost note
> - accentuded note
NH - natural harmonic
AH - artificial harmonic
TH - tapped harmonic
SH - semi harmonic
PH - pitch harmonic
h - hammer on
p - pull off
b - bend
br - bendRelease
pb - preBend
pbr - preBendRelease
brb - bendReleaseBend
\n/ - tremolo bar dip
\n - tremolo bar dive
-/n - tremolo bar Release up
/n\ - tremolo bar inverted dip
/n - tremolo bar return
-\n - tremolo bar Release down
S - shift slide
s - legato slide
/ -  slide into from below or out of upwards
\ -  slide into from above or out of downwards
~ - vibrato
W - wide vibrato
tr - trill
TP - tremolo picking
T - tapping
S - slap
P - pop
< - fade in
^ - brush up
v - brush down
Login or Register to remove this ad.

3 comments on The First Campaign

I love this song, great job!

5

I love this song, great job!

Thanks!

osup. I know you, you comment on my Etrian Odyssey tabs sometimes.

Great taste bro. Any Etrian Odyssey tabs you want to request, I'll see if I can make it happen.

love this song. Thank you!

love this song. Thank you!