Ads

Come on, Start the Adventure! (Etrian Odyssey II: Heroes of Lagaard) Guitar Tab

Submitted: Mar 10, 2011 by Kiku (Last updated: Mar 11, 2011)

5
Average: 5 (4 votes)
Download | Listen
Game: Etrian Odyssey II: Heroes of Lagaard
Composer(s): Yuzo Koshiro
Style: Arrangement, Fingerstyle
Series: Etrian Odyssey

AutoScroll: Slow | Medium | Fast
Come on, Start the Adventure! (Saa Bouken o Hajimetamae!)
Etrian Odyssey II: Heroes of Lagaard (Sekaiju no Meikyuu 2: Shoou no Seihai)
Composed by Yuzo Koshiro
Arranged by Kiku
2011-03-10

BPM: 65

Salem helped check the positioning in the tab. Thanks Salem!


                        Come on, Start the Adventure!

                         
Acoustic Guitar (DADGBE Tuning (Drop D) Capo 2)

     E.  E.  E  E  E  E  S S    E  S S E  E  E  E  E  S S  
E||----------3-----------0---|--0-------------------------|
B||------1------6----------3-|----------------------------|
G||--0-----------------------|-------5----0--2--------4-5-|
D||-------------------3------|---------2-----------2------|
A||----------------5---------|-----3------------3---------|
D||-------------6------------|--5------------4------------|


  E  S S E  E  E  E  E  S S    E  S S E  E  E  E  Q     
----------------------------|--------------------------|
--------------------------0-|---------------------3----|
--5---------5--0--------2---|--5---------5--5----------|
-------3-------------0------|-------3----------0--3----|
-----0---5------------------|---------3----------------|
--0------------2--5---------|--3--6---------5----------|


  E.  E.  E  E  E  E  S S    E.  E.  E  H           E.  E.  E  Q.     S S  
----------3-----------0---|--0-------3--5--------|------------------------|
------1------6----------3-|----------------------|------1-----------------|
--0-----------------------|------5---------------|-------------0--------0-|
-------------------3------|----------------------|--3-------3--2------3---|
----------------5---------|----------------------|------------------------|
-------------6------------|--5----------4--------|--0---------------------|


  E.  E.  E  H           Q    Q    Q    Q       Q    Q    Q    Q     
----------------------|----------------------|----------------------|
------4---------------|------------6---------|------------6---------|
--1-------1--3--------|--5----3---------3----|--5----3---------3----|
--3----------5--------|----------------------|----------------------|
----------------------|--4-------------------|--4-------------------|
----------------------|----------------------|----------------------|


  Q    Q    Q    Q       Q    Q    H           E.  E.  E  E.  E.  E   
----------------------|---------------------|-------------3----------|
------------6---------|------------6--------|------3---1------1---3--|
--5----3---------3----|--5----3-------------|--0---------------------|
----------------------|---------------------|------------------------|
----------------------|---------------------|------------------------|
--4-------------------|--4------------------|--3---------------------|


  E.  E.  E  H                       Q.     E  E  E  E  E   
-------------3--------|-----------|--1------------3--5--6--|
------3---1-----------|-----------|---------3--6-----------|
--0-------------------|-----------|--2---------------------|
----------------------|-----------|--3---------------------|
----------------------|-----------|--1---------------------|
----------------------|-----------|------------------------|


  H        Q    Q       Q.     E  E  E  E  E     Q    H        E  E   
--2------------------|--1------------3--5--6--|--6-------------------|
--4-------------1----|---------3--6-----------|--4----7--------6--4--|
--5--------3---------|--2---------------------|--5-------------------|
--4------------------|--3---------------------|--4-------------------|
---------------------|--1---------------------|----------------------|
---------------------|------------------------|----------------------|


  W                   W                  
--1----------------|--L----------------||
--3----------------|--L----------------||
--2----------------|--L----------------||
--0----------------|--L----------------||
--1----------------|--L----------------||
-------------------|-------------------||




Duration Legend
---------------
W - whole
H - half
Q - quarter
E - 8th
S - 16th
T - 32nd
X - 64th
. - note dotted
|-n-|  - n-tuplets


Tablature Legend
----------------
L - tied note
x - dead note
g - grace note
(n) - ghost note
> - accentuded note
NH - natural harmonic
AH - artificial harmonic
TH - tapped harmonic
SH - semi harmonic
PH - pitch harmonic
h - hammer on
p - pull off
b - bend
br - bendRelease
pb - preBend
pbr - preBendRelease
brb - bendReleaseBend
\n/ - tremolo bar dip
\n - tremolo bar dive
-/n - tremolo bar Release up
/n\ - tremolo bar inverted dip
/n - tremolo bar return
-\n - tremolo bar Release down
S - shift slide
s - legato slide
/ -  slide into from below or out of upwards
\ -  slide into from above or out of downwards
~ - vibrato
W - wide vibrato
tr - trill
TP - tremolo picking
T - tapping
S - slap
P - pop
< - fade in
^ - brush up
v - brush down
Login or Register to remove this ad.

1 comment on Come on, Start the Adventure!

Sounds Good

5

Nice tab, keep up the good work