Ads

Research Team (Eternal Ring) Guitar Tab

Submitted: Dec 28, 2012 by scarecrowlol

5
Average: 5 (2 votes)
Download | Listen
Game: Eternal Ring
Composer(s): Keiichiro Segawa, Yuji Kanda, Tsukasa Saitoh
Style: Arrangement, Fingerstyle

AutoScroll: Slow | Medium | Fast
Title: Research Team
SubTitle: Eternal Ring
Artist: Keiichiro Segawa, Yuji Kanda
Tabber: by Mitch Jackson
Tempo = 60
T/S = 4/4

  <--**Capo 8**-->

      ^
      S S S S Q     E  E  E  S S    E  S S Q     E  E  E  E       S S S S Q     E  E  E  E       E  E  E.  T T E  S T T Q                                              
E ||------2----------------------|-----------------------------|------3------------------0----|--2L-L--L----------------------|
B ||--2-3---0-2--------------0-2-|--3---------------------3----|--2-3---0-3-----------3-------|------------5-3-2----0-2-3-----|
G ||o-----0---------------0------|-------2-2-----------2-------|-------------------0----------|-------------------------0-----|
D ||o-0L------------0------------|------------------4----------|------0---------4-------------|-----2----------4--0-----------|
A ||----------2--------2---------|-----0---------0--4----------|----------2-----------5-------|--0-----4----------------------|
E ||--3--------------------------|--2------2-------------------|--3---------------------------|-------------------------------|

      ^
      S S S S Q     E  E  E  S S    E  S S Q     E  E  E  E       S S S S Q     E  E  E  E       E  E  Q     E  E  S S S S                                                                                                                                                                                                     
   |------2----------------------|-----------------------------|------3------------------0----|--5-----2-----3--2--3-2-0-2-|
   |--2-3---0-2--------------0-2-|--3---------------------3----|--2-3---0-3-----------3-------|----------------------------|
   |------0---------------0------|-------2-2-----------2-------|-------------------0----------|--------------------0-------|
   |--0L------------0------------|------------------4----------|------0---------4-------------|-----2--------4--0----------|
   |----------2--------2---------|-----0---------0--4----------|----------2-----------5-------|--0-----4-------------------|
   |--3--------------------------|--2------2-------------------|--3---------------------------|----------------------------|


      ^
      S S S S S S S S S S S S S S S S     S S S S S S S S S S S S S S S S     S S S S S S S S S S S S S S S S     S S S S S S S S S S S S S S S S                                               
   |--------------0---------------2----|--5-------------2-2----------------|--------------0---------------2----|--5-------2-------3-------0--------|
   |--0-------2-----------2---3--------|----------3---------------3--------|--0-------2-----------2---3--------|----------------------3-------2----|
   |------4-----------4----------------|------2-------2-------2-------2----|------4-----------4----------------|------2-------2--------------------|
   |--4---------------4-4---4---4---4--|----4---4---4-------4---4---4---4--|--4---------------4-4---4---4---4--|----4---4---4---4---4---4---0---0--|
   |--2-2---2---2---2------------------|--0---------------0----------------|--2-2---2---2---2------------------|--0---------------0----------------|
   |-----------------------------------|-----------------------------------|-----------------------------------|-----------------------------------|

                                                    
      ^                                                                       ^
      S S S S S S S S S S S S S S S S     S S S S S S S S S S S S S S S S     S S S S S S S S S S S S S S S S     S S S S S S S S S S S S S S S S                                                       
   |--------------2---5-----------2----|--5-------------2-2----------------|--------------2---5-------7---2----|--5-------7-------2-------3--------|
   |--0---2---3-----------0---2--------|----------3---------------3--------|--0---2---3-----------0------------|-----------------------------------|
   |-----------------------------------|------2-------2-------2-------2----|-----------------------------------|------2-------2-------2-------2----|
   |--4-4---4---4---4------------------|----4---4---4-------4---4---4---4--|--4-4---4---4---4------------------|----4---4---4---4---4---4---4---4--|
   |--2---------------2-2---2---2---2--|--0---------------0----------------|--2---------------2-2---2---2---2--|--0---------------0----------------|
   |-----------------------------------|-----------------------------------|-----------------------------------|-----------------------------------|
                                                     


      S S S S S S S S S S S S S S S S     S S S S S S S S S S S S S S S S     S S S S S S S T T TS S S S S S S S     S S S S S S S S S S S S S S S S                                                        
   |--2---------------0-------0-----2--|------------------0-------0-----2--|--2-----0-0------------------0-2-0----|--------------------------2--------|
   |----------0---2-3-----3------------|--3-----------2-3-----3------------|----------------5-3-5L-------------3--|--2---------------2----------------|
   |------0-----------------------0----|------0---2-------------------2----|------0-------0----------0------------|------2-------2-------2-------2----|
   |----0---0---0-------0---0---0------|----0---0---0-------0---0---0------|----2-------2----------2---2----------|----4---4-4-4---4---4---4---4---4--|
   |-----------------------------------|--0---------------0----------------|--------------------------------------|-----------------------------------|
   |--3---------------3----------------|-----------------------------------|--0-------0---------------------------|--2-------2------------------------|

                                                     

      S S S S S S S S S S S S S S S S     S S S S S S S S S S S S S S S S     S S S S S S S S S S S S S S S S     S S S S S S S T T E  S T T Q                                                       
   |------2----------------------------|-----------------------------------|------2----------------------------|------------------------------------||
   |--2-3---0-2-------0-------2--------|--0--------------------------------|--2-3---0-2-------0-------2--------|--3-------0-----5-3-2----0-2-3------||
   |--------------0-------0-------0----|----------0-------2-------0--------|--------------0-------0-------0----|------0-------0--------------0-----o||
   |------------0---0---0---0---0---0--|------0-------0-------0-------0----|------------0---0---0---0---0---0--|----0---0---0-------4--0-----------o||
   |-----------------------------------|----2---2---2---2---2---2---2---2--|-----------------------------------|------------------------------------||
   |--3-------3------------------------|--2---------------2----------------|--3-------3------------------------|--2---------------------------------||

                                                                                      |--RALL---->
      ^                                                                                                                  ^
      S S S S Q     E  E  E  S S    E  S S Q     E  E  E  E       S S S S Q     E  E  E  E       E  E  E.  T T E  S T TS E.                                                  
   |------2----------------------|-----------------------------|------3------------------0----|--2L-L--L-----------------------|
   |--2-3---0-2--------------0-2-|--3---------------------3----|--2-3---0-3-----------3-------|------------5-3-2----0-2--3-----|
   |------0---------------0------|-------2-2-----------2-------|-------------------0----------|--------------------------0-----|
   |--0L------------0------------|------------------4----------|------0---------4-------------|-----2----------4--0------4-----|
   |----------2--------2---------|-----0---------0--4----------|----------2-----------5-------|--0-----4-----------------5-----|
   |--3--------------------------|--2------2-------------------|--3---------------------------|--------------------------------|

   -->| 40BMP
      
      W
   |-----------------------------|| 
   |--L--------------------------||                                                     
   |--L--------------------------||
   |--L--------------------------||
   |--L--------------------------|| 
   |-----------------------------||
Login or Register to remove this ad.