Atlena (Equinox) Guitar Tab

Submitted: Dec 01, 2009 by RexLeRouge (Last updated: Feb 06, 2010)

4
Average: 4 (1 vote)
Download | Listen
Game: Equinox
Composer(s): Tim and Geoff Follin
Style: Alternate picking, Transcription

AutoScroll: Slow | Medium | Fast
Atlena                                      


Arp├Ęges
       Dm                      C                         
       |---3---|   |---3---|   |---3---|   |---3---|     
       E   E   E   E   E   E   E   E   E   E   E   E     
E||---------------10----------------------12-----------||
B||-----------10------10----------------------13-------||
G||*------10--------------10----------12----------12--*||
D||*--12--------------------------14------------------*||
A||---------------------------15-----------------------||
E||----------------------------------------------------||


   Bm                 A                      
   |--3--|  |--3--|   |---3--|  |---3--|     
   E  E  E  E  E  E   E   E  E  E   E  E     
------------7-------------------9----------||
---------7-----7-------------------10------||
*-----7-----------7----------9---------9--*||
*--9---------------------11---------------*||
---------------------12--------------------||
-------------------------------------------||


   G#m                F#                   
   |---3--|  |--3--|  |--3--|  |--3--|     
   E   E  E  E  E  E  E  E  E  E  E  E   4x
-------------4-----------------6---------||
----------4-----4-----------------7------||
*------4-----------4--------6--------6--*||
*--6---------------------8--------------*||
----------------------9------------------||
-----------------------------------------||


   C7M                                     
   |---3--|  |--3--|  |--3--|  |--3--|     
   E   E  E  E  E  E  E  E  E  E  E  E     
-------------3-----------------3---------||
----------5-----5-----------5-----5------||
*------4-----------4-----4-----------4--*||
*--5------------------5-----------------*||
-----------------------------------------||
-----------------------------------------||


   Cm                                     
   |--3--|  |--3--|  |--3--|  |--3--|     
   E  E  E  E  E  E  E  E  E  E  E  E     
------------3-----------------3---------||
---------4-----4-----------4-----4------||
*-----5-----------5-----5-----------5--*||
*--5-----------------5-----------------*||
----------------------------------------||
----------------------------------------||


   Am                                     
   |--3--|  |--3--|  |--3--|  |--3--|     
   E  E  E  E  E  E  E  E  E  E  E  E     
------------5-----------------5---------||
---------5-----5-----------5-----5------||
*-----5-----------5-----5-----------5--*||
*--7-----------------7-----------------*||
----------------------------------------||
----------------------------------------||


   D7M                                     
   |---3--|  |--3--|  |--3--|  |--3--|     
   E   E  E  E  E  E  E  E  E  E  E  E     
-------------5-----------------5---------||
----------7-----7-----------7-----7------||
*------6-----------6-----6-----------6--*||
*--7------------------7-----------------*||
-----------------------------------------||
-----------------------------------------||


   A#                                     
   |--3--|  |--3--|  |--3--|  |--3--|     
   E  E  E  E  E  E  E  E  E  E  E  E     
------------6-----------------6---------||
---------7-----7-----------7-----7------||
*-----6-----------6-----6-----------6--*||
*--8-----------------8-----------------*||
----------------------------------------||
----------------------------------------||


    Cm                                      
    |--3--|  |--3--|   |--3--|  |--3--|     
    E  E  E  E  E  E   E  E  E  E  E  E   6x
-------------8------------------8---------||
----------8-----8------------8-----8------||
*------8-----------8------8-----------8--*||
*--10-----------------10-----------------*||
------------------------------------------||
------------------------------------------||


   F                                             
   |---3---|  |---3---|   |---3---|  |---3---|   
   E   E   E  E   E   E   E   E   E  E   E   E   
--------------8----------------------8----------|
----------10-----10--------------10-----10------|
------10-------------10------10-------------10--|
--10---------------------10---------------------|
------------------------------------------------|
------------------------------------------------|


  A                                      G#                                   
  |--3--|  |--3--|  |--3--|  |--3--|     |--3--|  |--3--|  |--3--|  |--3--|   
  E  E  E  E  E  E  E  E  E  E  E  E     E  E  E  E  E  E  E  E  E  E  E  E   
-----------5-----------------5--------|-----------4-----------------4--------|
--------6-----6-----------6-----6-----|--------4-----4-----------4-----4-----|
-----5-----------5-----5-----------5--|-----5-----------5-----5-----------5--|
--7-----------------7-----------------|--6-----------------6-----------------|
--------------------------------------|--------------------------------------|
--------------------------------------|--------------------------------------|


  |--3--|  |--3--|  |--3--|  |--3--|      |--3--|  |--3--|   |--3--|  |--3--|   
  E  E  E  E  E  E  E  E  E  E  E  E      E  E  E  E  E  E   E  E  E  E  E  E   
--------------------------------------|----------------------------------------|
-----------6-----------------6--------|---------8--9--8------------8--9--8-----|
--------7-----7-----------7-----7-----|------8-----------8------8-----------8--|
--6--8-----------8--6--8-----------8--|--10-----------------10-----------------|
--------------------------------------|----------------------------------------|
--------------------------------------|----------------------------------------|


                                          Cm                                    
  |--3--|  |--3--|  |--3--|  |--3--|      |--3--|  |--3--|   |--3--|  |--3--|   
  E  E  E  E  E  E  E  E  E  E  E  E      E  E  E  E  E  E   E  E  E  E  E  E   
--------------------------------------|------------8------------------8--------|
-----------8-----------------8--------|---------8-----8------------8-----8-----|
-----5--8-----8--5-----5--8-----8--7--|------8-----------8------8-----------8--|
--7-----------------8-----------------|--10-----------------10-----------------|
--------------------------------------|----------------------------------------|
--------------------------------------|----------------------------------------|


  Cm/A#                                   
  |----3---|  |--3--|  |--3--|  |--3--|   
  E     E  E  E  E  E  E  E  E  E  E  E   
--------------8-----------------8--------|
-----------8-----8-----------8-----8-----|
--------8-----------8-----8-----------8--|
--8--------------------8-----------------|
-----------------------------------------|
-----------------------------------------|


  F                                            
  |---3---|  |---3---|  |---3---|  |---3---|   
  E   E   E  E   E   E  E   E   E  E   E   E   
-------------8---------------------8----------|
---------10-----10-------------10-----10------|
-----10-------------10-----10-------------10--|
--7---------------------7---------------------|
----------------------------------------------|
----------------------------------------------|


  F                                      G#7M                                   
  |--3--|  |--3--|  |--3--|  |--3--|     |---3---|  |--3--|  |--3--|  |--3--|   
  E  E  E  E  E  E  E  E  E  E  E  E     E    E  E  E  E  E  E  E  E  E  E  E   
--------------------------5--8--5-----|-------------3-----------------3--------|
-----------6-----------6-----------6--|----------4-----4-----------4-----4-----|
--------5-----5-----5-----------------|-------5-----------5-----5-----------5--|
-----7-----------7--------------------|--6-------------------6-----------------|
--8-----------------------------------|----------------------------------------|
--------------------------------------|----------------------------------------|


                                         Cm                                   
  |--3--|  |--3--|  |--3--|  |--3--|     |--3--|  |--3--|  |--3--|  |--3--|   
  E  E  E  E  E  E  E  E  E  E  E  E     E  E  E  E  E  E  E  E  E  E  E  E   
--------------------------------------|-----------3-----------------3--------|
--------------------------------------|--------4-----4-----------4-----4-----|
--------5--7--5-----------5--7--5-----|-----5-----------5-----5-----------5--|
-----6-----------6-----6-----------6--|--5-----------------5-----------------|
--8-----------------8-----------------|--------------------------------------|
--------------------------------------|--------------------------------------|


  F                                      Em                C7M                 
  |--3--|  |--3--|  |--3--|  |--3--|     |--3--|  |--3--|  |---3--|  |--3--|   
  E  E  E  E  E  E  E  E  E  E  E  E     E  E  E  E  E  E  E   E  E  E  E  E   
--------------------------5--8--5-----|-----------7------------------3--------|
-----------6-----------6-----------6--|--------8-----8------------5-----5-----|
--------5-----5-----5-----------------|-----9-----------9------4-----------4--|
-----7-----------7--------------------|--9-----------------5------------------|
--8-----------------------------------|---------------------------------------|
--------------------------------------|---------------------------------------|


  C#7M                Fm                                                        
  |---3---|  |--3--|  |--3--|  |--3--|     |--3--|  |--3--|  |--3--|  |--3--|   
  E    E  E  E  E  E  E  E  E  E  E  E     E  E  E  E  E  E  E  E  E  E  E  E   
-------------4-----------------1--------|--------------------------------------|
----------6-----6-----------1-----1-----|-----------1-----------------1--------|
-------5-----------5-----1-----------1--|--------1-----1-----------1-----1-----|
--6-------------------3-----------------|--0--3-----------3--0--3-----------3--|
----------------------------------------|--------------------------------------|
----------------------------------------|--------------------------------------|


  SLOW DOWN....                                     Cm                 
                                                    ^                  
  |--------3-------|  |--3--|  |--3--|  |--3--|                        
  E             E  E  E  E  E  E  E  E  E  E  E     W                  
-------------------------------------------------|-------------------||
----------------------1-----------------1--------|--4----------------||
-------------------1-----1-----------1-----1-----|--5----------------||
--0-------------3-----------3--0--3-----------3--|--5----------------||
-------------------------------------------------|--6----------------||
-------------------------------------------------|-------------------||




Duration Legend
---------------
W - whole
H - half
Q - quarter
E - 8th
S - 16th
T - 32nd
X - 64th
. - note dotted
|-n-|  - n-tuplets

Login or Register to remove this ad.