Ads

Prayer (Endless Ocean) Guitar Tab

Submitted: Sep 21, 2010 by Parhelion

5
Average: 5 (11 votes)
Download | Listen
Game: Endless Ocean
Composer(s): Rolf Lovland, Fionnuala Sherry
Style: Arrangement, Fingerstyle

AutoScroll: Slow | Medium | Fast
                                         Prayer
                                      Endless Ocean


                                                           Rolf Lovland & Fionnuala Sherry
Capo 1



     E  E  E  E  E  E  E  E     E  E  E  E  E  E  E  E     E  E  E  E  E  E  E  E   
E||-----------------------3--|-----------0--------------|-----------------------3--|
B||-----0-----0--------1-----|-----------------------3--|-----------0--------1-----|
G||--------0--------0--------|--------2-----------0-----|--------0--------0--------|
D||--2-----------------------|-----2-----------4--------|--------------------------|
A||--------------3-----------|--0-----------2-----------|-----2--------3-----------|
E||--------------------------|--------------------------|--0-----------------------|


  E  E  E  E  E  E  E  E     E  E  E  E  E  E  E  E     E  E  E  E  E  E  E  E   
-----------0--------------|-----------------------3--|-----------0--------------|
-----------------------3--|-----------0--------1-----|-----------------------3--|
--------2-----------0-----|--------0--------0--------|--------2-----------0-----|
-----2-----------4--------|--------------------------|-----2-----------4--------|
--0-----------2-----------|-----2--------3-----------|--0-----------2-----------|
--------------------------|--0-----------------------|--------------------------|


  E  E  E  E  E  E  E  E     E  E  E  E  E  E  E  E     E  E  E  E  E  E  E  E   
--------------------------|-----0--------------------|--------0--2--3-----2-----|
--------3--------3--------|-----------0--------1-----|-----3-----------------3--|
-----0--------0--------0--|--------0--------0-----0--|--------2-----------------|
--4--------4--------4-----|--------------------------|-----2-----------4--------|
--------------------------|-----2--------3-----------|--0-----------2-----------|
--------------------------|--0-----------------------|--------------------------|


  E  E  E  E  E  E  E  E     E  E  E  E  E  E  E  E     E  E  E  E  E  E  E  E   
-----0--------------------|--------------------------|--0-----------------------|
--L--------0--------1-----|-----------------------0--|-----------0--------1-----|
--------0--------0-----0--|--------2-----------0-----|--------0--------0-----0--|
--------------------------|-----2-----2-----4--------|--------------------------|
-----2--------3-----------|--0-----------2-----------|-----2--------3-----------|
--0-----------------------|--------------------------|--0-----------------------|


                    |--3--|                                                           
  E  E  E  E  E  E  S  S  S E     E  E  E  E  E  E  E  E     E  E  E  E  E  E  E  E   
--0-----0--2--3-----2h-3p-2----|-----------------------3--|-----------0-----2--3--5--|
-----3----------------------3--|--0--------0--------1-----|--------------------------|
--------2----------------------|--0--------------0--------|--------2-----------------|
-----2-----------4-------------|--------2-----------------|-----2--------------------|
--0-----------2----------------|-----2--------3-----------|--0-----------2-----------|
-------------------------------|--0-----------------------|--------------------------|


  E  E  E  E  E  E  E  E     E  E  E  E  E  E  E  S S    E  E  E  E  E  E  E  E   
--7-----------------------|-----7--8--7--5--------5-7-|--------------------------|
-----------0--------1-----|--------------------8------|-----------0--------1-----|
--------0--------0-----0--|-----------------0---------|--------0--------0-----0--|
--------------------------|---------------------------|--------------------------|
-----2--------3-----------|--0------------------------|-----2--------3-----------|
--0-----------------------|--------------7------------|--0-----------------------|


                                                                          |--3--|     
  E  E  E  E  E  E  E  E     E  E  E  E  E  E  E  E     E  E  E  E  E  E  S  S  S E   
--------------------------|--0--------------------0--|-----0-----2--3-----2h-3p-2----|
-----------------------0--|-----------0--------1-----|--3-------------------------3--|
--------2-----------0-----|--------0--------0--------|-------------------------------|
-----2-----2-----4--------|--------------------------|--------2--------4-------------|
--0-----------2-----------|-----2--------3-----------|--0-----------2----------------|
--------------------------|--0-----------------------|-------------------------------|


  E  E  E  E  E  E  E  E     E  E  E  E  E  E  E  E       E  E  E  E  E  E  E  E   
-----------------------3--|-----------0--------------||---------------------------|
--0--------0--------1-----|-----------------------3--||---------3--------3--------|
--0-----0--------0--------|--------2-----------0-----||*-----0--------0--------0--|
--------------------------|-----2-----------4--------||*--4--------4--------4-----|
-----2--------3-----------|--0-----------2-----------||---------------------------|
--0-----------------------|--------------------------||---------------------------|


  E  E  E  E  E  E  E  E     E  E  E  E  E  E  E  E     E  E  E  E  E  E  E  E   
--------0--3--5-----------|-----------0--0-----------|--------0--3--5-----------|
-----------------------7--|--3-----------------------|-----------------------7--|
--------0-----------0-----|--------0-----------0-----|--------0-----------0-----|
-----2-----------4--------|-----4-----------5-----0--|-----2-----------4--------|
--3-----------5-----------|--2-----------3-----------|--3-----------5-----------|
--------------------------|--------------------------|--------------------------|


  E  E  E  E  E  E  E  E     E  E  E  E  E  E  E  E     E  E  E  E  E  E  E  E   
--------------------------|--------0--3--5-----------|-----------0--0-----------|
--3--------3-----------3--|-----------------------7--|--3-----------------------|
--------0-----------0-----|--------0-----------0-----|--------0-----------0-----|
-----4-----------4--------|-----2-----------4--------|-----4-----------5-----0--|
--2-----------2-----------|--3-----------5-----------|--2-----------3-----------|
--------------------------|--------------------------|--------------------------|


              ^                                                                      
                 |--3-|                                                              
  E  E  E  E  E  S S  S E  E     E  E  E  E  E  E  E  E     E  E  E  E  E  E  E  E   
--------0---------------0-----|--0--------------------3--|-----------0--------------|
-----------8--7--L-8s-7-------|-----------0--------1-----|-----------------------3--|
---------------------------7--|--------0--------0--------|--------2-----------0-----|
-----2--------4---------------|--------------------------|-----2-----------4--------|
--3-----------5---------------|-----2--------3-----------|--0-----------2-----------|
------------------------------|--0-----------------------|--------------------------|


  E  E  E  E  E  E  E  E     E  E  E  E  E  E  E  E     E  E  E  E  E  E  E  E   
--------------------------|--------------------------|--0-----------------------|
-----------0--------1-----|-----------------------0--|-----------0--------1-----|
--------0--------0-----0--|--------2-----------0-----|--2--------0--------0-----|
--------------------------|-----2-----2-----4--------|--------4--------2--------|
-----2--------3-----------|--0-----------2-----------|-----2--------3-----------|
--0-----------------------|--------------------------|--0--------------------3--|


  E  E  E  E  E  E  E  E     E  E  E  E  E  E  E  E     E  E  E  E  E  E  E  E   
-----------0--------------|--------0--2-----3-----0--|-----------0--------------|
--------------------4-----|--4-----------------1-----|--------1-----0-----4-----|
--------2--------------4--|--------0--------4--------|--------2--------0-----2--|
-----2-----------4--------|--------------------------|-----2--------------4-----|
--0-----------2-----------|-----2--------3-----------|--0-----------2-----------|
--------------------------|--0-----------------------|--------------------------|


  E  E  E  E  E  E  E  E       E  E  E  E  E  E  E  E     E  E  E  E  E  S S E  E   
---------------------------||--------0--3--5--------7--|--8--7--------3----2-0-----|
-----------------------3---||--------------------------|-----------3---------------|
--0--------0--------0-----*||--------0-----------0-----|--------0--------0------0--|
--4-----4--------4--------*||-----2-----------4--------|---------------------------|
-----7--------7------------||--3-----------5-----------|--------------3------------|
--0------------------------||--------------------------|--7------------------------|


                 |--3--|                             
  E  E  E  E  E  S  S  S E  E     W                  
--------0--3--2--2h-3p-2-0-----|--0----------------||
----------------------------3--|-------------------||
--------0----------------------|--0----------------||
-----2--------0----------------|-------------------||
--3----------------------------|-------------------||
-------------------------------|--0----------------||




Duration Legend
---------------
W - whole
H - half
Q - quarter
E - 8th
S - 16th
T - 32nd
X - 64th
. - note dotted
|-n-|  - n-tuplets


Tablature Legend
----------------
L - tied note
h - hammer on
p - pull off
s - legato slide

Login or Register to remove this ad.

7 comments on Prayer

Easy to play & it sounds so

5

Easy to play & it sounds so pretty.. great job !

Agreed. Keep up the good

5

Agreed. Keep up the good work.

Edit: Think I forgot to rate this :O.

This is really pretty. Nice

5

This is really pretty. Nice work.

Golly, that's so smooth to

5

Golly, that's so smooth to play. Another song that I didn't knew. Sounds incredible, though.

Excelent arrangement. Good playability and it sounds beautiful. Congratulations and thank you for sharing it with us!

...

5

Not bad at all, you got it right, keep it up!! :)

Very nice! Easy and sound

5

Very nice!
Easy and sound sgood when you tune down :D

wonderful

5

wonderful