Ads

Lilium (Elfen Lied) Guitar Tab

Submitted: Dec 22, 2013 by diralark

5
Average: 5 (8 votes)
Download | Listen
Game: Elfen Lied
Composer(s): Kumiko Oguro
Style: Arrangement, Fingerstyle

AutoScroll: Slow | Medium | Fast
                      Lilium    from Elfen Lied  

 Music by Konishi Kayo & Kondoo Yukio >> Guitar arr. by Diralark

Nylon Guitar, let ring, Tempo 60
              ^                         ^     ^                            ^            
     E  E     E  E  E  E  Q    E  E     E  E  E   E   E  E     E  E  E  E  E  E  E  E   
E||-----0--|----------------------0--|----------------------|--------------------------|
B||--------|--0--------0--1----------|--0-----1---1---3--1--|-----------------0--------|
G||--2-----|-------------------2-----|-----------(2)--------|--2-----------0-----0-----|
D||--------|--------2-----2----------|-----2----------------|--------3-----0--------3--|
A||--------|-----2--------0----------|--------0-------------|-----3-----3--------------|
E||--------|--4----------------------|--4-------------------|--1-----------------------|


                                         I        -]                           
              ^                          ^              ^                      
  E  E  E  E  E  E  E  E     E  E  E  E  E  E  E  E     Q    E  E  Q    E  E   
--------------------------|--------------------------|---------------------0--|
--------------2-----------|--------------------1--3--|--1----1-----0----------|
--0-----0--------2--------|-----0--2-----2--4--------|-------2--2-------2-----|
-----------0--2-----3--2--|--3--------0--1-----------|--2---------------------|
-----2--------------------|--5-----------------------|------------------------|
--0-----------------------|--------------------------|-------------0----------|


  ^                         ^     ^                ^                        
  E  Q    E  E  E  E  E     E  E  E   E   E  E     E  E  E  E  E  E  E  E   
----------------------0--|----------------------|--------------------------|
--0-------0--1-----------|--0-----1---1---3--1--|-----------------0--------|
-------------------2-----|-----------(2)--------|--2-----------0-----0-----|
----------------2--------|-----2----------------|--------3-----0--------3--|
-----2-------0-----------|--------0-------------|-----3-----3--------------|
--4----------------------|--4-------------------|--1-----------------------|


                             III       -]                            I            
  ^                          ^                              >  >  >  ^  >  >  >   
  E  E  E  E  E  E  E  E     E   E  E  E  E  E  E  E     E  E  E  E  E  E  E  E   
--------------------------|---------------------------|-----------0--1--------1--|
--------------2-----------|------3--------------------|-----2--3--------1--0-----|
--0-----0--------2--------|---------5--4--2--1-----1--|--2-----------------------|
-----------0--2-----3--2--|--3------------------4-----|--------------0-----------|
-----2--------------------|--5------------------------|--0-----------------------|
--0-----------------------|---------------0-----------|--------------------3-----|


  ^  >  >  >  ^  >  >                         ^             ^                       
  E  E  E  E  E  E  E  E     Q    E  E  E  E  Q    E  E     W                E  E   
--0--3-----0--------------|------------------------------|----------------------0--|
--------1-----4-----------|--1----1-----1-----1----1--3--|--0----------------------|
--0-----2-----5--5--4--2--|-------2-----2-----2----------|-------------------2-----|
--------3-----------------|--2-------2-----2-------------|-------------------------|
--3-----------6-----------|-------------------0----------|-------------------------|
--------------------------|--0---------------------------|--0----------------------|


  ^                        ^     ^                            ^            
  E  Q    E  Q    E  E     E  E  E   E   E  E     E  E  E  E  E  E  E  E   
---------------------0--|----------------------|--------------------------|
--0-------0--1----------|--0-----1---1---3--1--|-----------------0--------|
------------------2-----|-----------(2)--------|--2-----------0-----0-----|
-----2-------2----------|-----2----------------|--------3-----0--------3--|
-------------0----------|--------0-------------|-----3-----3--------------|
--4---------------------|--4-------------------|--1-----------------------|


                             III       -]                                               
              ^                                                                ^        
  E  E  E  E  E  E  E  E     E   E  E  E   E  E  E  E     E   E    E    Q      Q.       
--------------------------|----------------------------|-------------------------------|
--------------------------|------3---------------------|---------------(3)----(1)------|
--0-----0-----2--2--------|---------5--4S--2--1-----1--|--2-------(2)--(2)-------------|
-----------0--2-----3--2--|--3-------------------4-----|-----(2)--------------(2)------|
-----2--------------------|--5-------------------------|--0-------------------(0)------|
--0-----------------------|----------------0-----------|-------------------------------|


  W                  
-------------------||
--L----------------||
-------------------||
--L----------------||
--L----------------||
-------------------||

Legend
---------------
W - whole duration
H - half
Q - quarter
E - 8th
. - note dotted
L - tied note
(n) - ghost note
> - accentuded note
h - hammer on
p - pull off
^ - brush up
Login or Register to remove this ad.

2 comments on Lilium

I enjoyed this

5

Excellently done arrangement - much easier to play than many of the other versions. It does tend to lose a bit of that opera/music box vibe the original had however, though that could probably be helped with a capo.

Many thanks C-style :)

Yeah you understood well coz it's was just my point : build by ear an easier arrangement than the usaguitarist version (http://lilac.secret.jp/usaguitarist/tabs/LILIUMfull.html).I think it's a good beginner exercise to learn about time signature , there is 4/4 , 3/4 & 5/4 here (appears on pdf or gp5). To recover the original tone : CAPO at 9th bars ! I also like sing this ost, latin is a strange & mysterious language :)