Secunda (The Elder Scrolls V: Skyrim) Guitar Tab

Submitted: Apr 27, 2016 by Bhael (Last updated: Apr 29, 2016)

5
Average: 5 (6 votes)
Download | Listen
Game: The Elder Scrolls V: Skyrim
Composer(s): Jeremy Soule
Style: Arrangement, Artificial harmonics, Fingerstyle, Natural harmonics
Series: The Elder Scrolls

Click here for a video example.

AutoScroll: Slow | Medium | Fast
                                   Secunda                                     
                          The Elder Scrolls V: Skyrim
                                 Jeremy Soule




                              NH                    NH            
     H        Q         E     E  Q    Q       E     E  Q    Q     
E||----------------||------------0---------|-----------0---------|
B||-----------0----||-----------------0----|----------------0----|
G||----------------||*--5------------------|--5------------------|
D||----------------||*-----<>19------------|-----<>19------------|
A||----------------||---0------------------|--0------------------|
D||----------------||----------------------|---------------------|


        NH         NH      ^        NH           
  E     E  Q       Q       E  E     Q    Q       
-----------0------------|-----0----------------||
------------------------|----------------0-----||
--5---------------------|--4------------------*||
-----<>19---------------|--0------------------*||
--0-------------<>12----|--------<>19----------||
------------------------|----------------------||


     ^     NH    NH      NH    NH       NH               NH    NH  
     E     E     Q       E     E        E  E     Q       E     E   
--<>12--------<>12----------------|--------0----------------------|
----------------------------<>12--|-------------------<>12--------|
--------<>19----------<>19--------|-------------------------<>12--|
----10----------------------------|-----------<>10----------------|
----------------------------------|--<>12-------------------------|
----------------------------------|-------------------------------|


            NH      NH    NH       NH    NH                
   E  E     Q       E     E        E     E   Q      Q      
------0----------------------|---------------------(0)----|
-----------------------------|--------------(0)-----------|
-----------------<>12--------|----------------------------|
---------<>19----------------|--<>19----------------------|
-----------------------<>19--|--------<>19----------------|
--10-------------------------|--<>12----------------------|


     NH    NH    ^       NH    NH             NH      ^     NH  
     E     E     Q       E     E     E  E     Q       E     E   
--<>12--------<>12----------------|-----0----------------------|
--------------<>12----------<>12--|----------------<>12--------|
--------<>19----------<>19--------|----------------------<>12--|
----10----------------------------|--------<>10----------------|
------------------------10--------|--0----------------7--------|
----------------------------------|----------------------------|


            NH      NH    NH       NH    NH                                
   E  E     Q       E     E        E     E  Q    Q       E  E  Q    E  E   
------0----------------------|------------------------|--0-----0----------|
-----------------------------|-------------------0----|-----3-------3--0--|
-----------------<>12--------|--------------0---------|-------------0-----|
---------<>19----------------|--<>19------------------|--------2----------|
-----------------------<>19--|--------<>19------------|--3----------------|
--10-------------<>12--------|-----5------------------|-------------------|


  E  E  Q     E  E     E  E  E   E   E  E     E  E  Q    Q     
--------------------|----------------------|------------------|
--------1p----0-----|----------------------|------------------|
-----0-----------0--|--------2-------0-----|--2---------------|
--------2-----------|-----2-----(2)-----2--|-----2------------|
--3-----------------|--3-------------------|--3-----3----3----|
--------------------|----------------------|------------------|


  E  E  Q    E  E     E  E  Q    E  E     E  E  E   E   E  E   
--0-----0----------|-------------------|----------------------|
-----3-------3--0--|--------1----0-----|----------------------|
-------------0-----|-----2----------0--|--------2-------0-----|
--------2----------|-------------------|-----2-----(2)-----0--|
--3----------------|--3----------------|--3-------------2-----|
-------------------|-------------------|----------------------|


                                                       ^      
  E  E  Q    Q         E  E  Q    E   E     E  E  Q    E  E   
------------------||---0-----0-----------|-------------------|
------------------||------1-------3p--0--|--1-----1----0-----|
--2---------------||*--------------------|-----2----------0--|
-----2------------||*--------2-----------|-------------------|
--0-----0----0----||---3-----------------|--3-----3----------|
------------------||--------------5------|-------------2-----|


  E  E  E   E   E  E     E  E  E   E    E   E       E  E  E   E   E  E   
----------------------|---------------------0---||----------------------|
----------------------|-------------------------||----------------------|
--2-----2-------0-----|--2--------(0)--(2)-----*||--2-----2-------0-----|
-----2-----(2)-----2--|--------4---------------*||-----2-----(2)-----4--|
--3-----3-------2-----|-----5-------------------||--3-----3-------2-----|
----------------------|--0----------------------||----------------------|


                                 NH                        NH                
   E   E   E   E   Q       E     E  E  S S E  S S    E     E  E  S S E  S S  
------------------------|-----------0----0--------|-----------0----0--------|
--(0)--------------0----|------------------0----0-|------------------0----0-|
---0--------------------|--5----------------------|--5----------------------|
-------4p--0------------|-----<>19----------------|-----<>19----------------|
--------------(0)-------|--0-----------0------0---|--------------0------0---|
---0--------------------|-------------------------|-------------------------|


        NH                        NH                     NH    NH             
  E     E  E  S S E  S S    E     E  E  E  Q       E     E     E  S S E  S S  
-----------0----0--------|-----------0----------|--8-------------------------|
------------------0----0-|-----------------0----|-------------------0------0-|
--5----------------------|--5-------------------|---------------------5------|
-----<>19----------------|-----<>19-------------|-----<>19-------------------|
--------------0------0---|--------------0-------|-----------<>19-------------|
-------------------------|----------------------|--7--------------7------7---|


        NH    NH                     NH    NH             
  E     E     E  S S E  S S    E     E     E  S S E  S S  
-------------------0--------|--7-------------------------|
---------------------0----0-|-------------------0------0-|
--5-------------------------|---------------------5------|
-----<>19-------------------|-----<>19-------------------|
-----------<>19-------------|-----------<>19-------------|
-----------------7------7---|--7--------------7------7---|


        NH    NH                               NH    ^              NH    
  E     E     E  S S Q       E  E  E  E  E     E     E  E  E  E     Q     
-------------------0-L----|--3--------------------|--5-------------------|
--------------------------|--------------0--------|-----------3----------|
--5-----------------------|-----------0-----<>12--|--------2-------------|
-----<>19-----------------|--------2--------------|-----0--------<>19----|
-----------<>19-----------|-----2-----------------|----------------------|
-----------------7--------|--2--------------------|--0-------------------|


                 NH      ^                                 NH        
  E  E  E  E     Q       E  E  E  E  E   E     E  E  E     E  E  E   
--7-------------------|--5-----------7s--8--|--8--------------------|
-----------0----------|--------3------------|--------5--------5-----|
--------0-------------|-----2-----2---------|-----5--------------5--|
--------------<>19----|---------------------|-----------<>19--------|
-----3----------------|---------------------|--0--------------------|
----------------------|--0------------------|-----------------------|


                 NH                                             
  E  E  E  E     Q       E  E  E  E  E  E     E  E  E  E  Q     
----------------------|--5-----------------|--------------3----|
--------7-----<>12----|-----------0--------|--------3----------|
-----7-----7----------|--------0-----0-----|-----2-----2-------|
--0-------------------|-----2-----------2--|--0----------------|
----------------------|--3-----------------|-------------------|
----------------------|--------------------|-------------------|


                 NH                           ^                     
                                                             |-3-|  
  E  E  E  E     E  E     E  E  E  E  Q       E  E  E  E  E  S S S  
--5--------------------|--------------0----|--2-----------2--2-3-2-|
--------5-----------5--|--------5----------|--------3--------------|
-----5-----5-----------|-----5-----5-------|-----2-----2-----------|
--------------<>19-----|-------------------|-----------------------|
--0--------------------|--0----------------|-----------------------|
-----------------------|-------------------|--0--------------------|


                                         NH                      NH       
  E   E    E    E   E  E     E  E  E     E  E  E     E  E  E     E  Q     
--0--------------------0--|-----------------0-----|-----------------0----|
----------(3)-------3-----|-----0--------------0--|-----0----------------|
-----(2)-------(2)--------|--------5--------------|--------5-------------|
--------------------------|-----------<>19--------|-----------<>19-------|
--------------------------|--0--------------------|--0-------------------|
--------------------------|-----------------------|----------------------|


  ^                     ^                    ^                
  E  E  E  E  Q         E   E  E  E  Q       E  E  Q    Q     
--0-----------0----|--0g1p-----0----------|--0---------------|
--------3----------|----3------------3----|-----0-------0----|
-----2-----2-------|----2---2-----2-------|--------5---------|
-------------------|----------------------|------------------|
-------------------|----------------------|--0---------------|
--0----------------|----0-----------------|------------------|


        NH                    NH         NH      ^        NH         
  E     E  Q    Q       E     E  Q       Q       E  E     Q    Q     
-----------0---------|-----------0------------|-----0---------------|
----------------0----|------------------------|----------------0----|
--5------------------|--5---------------------|--4------------------|
-----<>19------------|-----<>19---------------|--0------------------|
---------------------|--0-------------<>12----|--------<>19---------|
---------------------|------------------------|---------------------|


        NH              ^     NH                    NH         NH    
  E     E  Q    Q       E     E  Q    Q       E     E  Q       Q     
-----------0---------|-----------0---------|-----------0------------|
----------------0----|----------------0----|------------------------|
--5------------------|--5------------------|--5---------------------|
-----<>19------------|-----<>19------------|-----<>19---------------|
--0------------------|--0------------------|--0-------------<>12----|
---------------------|---------------------|------------------------|


  ^        NH                 NH                    NH            
  E  E     Q    Q       E     E  Q    Q       E     E  Q    Q     
-----0---------------|-----------0---------|-----------0---------|
----------------0----|----------------0----|----------------0----|
--4------------------|--5------------------|--5------------------|
--0------------------|-----<>19------------|-----<>19------------|
--------<>19---------|--0------------------|--0------------------|
---------------------|---------------------|---------------------|


        NH                              
  E     E  Q    Q        H.             
-----------0---------|----------------||
----------------0----|----------------||
--5------------------|----------------||
-----<>19------------|----------------||
--0------------------|--12------------||
---------------------|----------------|| 
Login or Register to remove this ad.

1 comment on Secunda

This is heavenly arranged!

This is heavenly arranged! Well done!