Ads

From Past to Present (The Elder Scrolls V: Skyrim) Guitar Tab

Submitted: Jul 18, 2018 by laoise (Last updated: Jul 18, 2018)

5
Average: 5 (1 vote)
Download | Listen
Game: The Elder Scrolls V: Skyrim
Composer(s): Jeremy Soule
Style: Arrangement, Artificial harmonics, Fingerstyle, Natural harmonics
Series: The Elder Scrolls

AutoScroll: Slow | Medium | Fast
The Elder Scrolls V: Skyrim - From Past to Present
Arranged by Laoise Earle

DADFAD Tuning

     ^                     ^                     ^                     ^                  
     H        Q    Q       E  E  H.              H        Q    Q       Q    H.            
D||--0--------3----2----|--------0------------|--0--------3----2----|--------------------|
A||--0------------------|--3------------------|--0------------------|--3-----------------|
F||--0------------------|--4--6---------------|--0------------------|--4----6------------|
D||---------------------|--0------------------|---------------------|--0-----------------|
A||---------------------|---------------------|---------------------|--------------------|
D||--0------------------|--5------------------|--0------------------|--5-----------------|

  ^                                                                              
  E  E  E  E  E  E  E  E     E  E  E  E  E  E  E  E     E  E  E  E  E  E  E  E   
--0-----------3-----2-----|--------0-----------------|--0--------------------0--|
--0-----------0-----0-----|--3-----------------------|--------0-----------0-----|
--0--------------0-----0--|-----6--------------6-----|--------------------------|
--------0--2--------------|-----0-----0-----0-----0--|-----4-----4-----4--------|
-----0--------------------|--------------------------|--------------------------|
--0-----------------------|--5-----------5-----------|--4-----------4-----------|

  ^                                                                        
  H.           Q       E  E  E  E  E  E  E  E     E  E  E  E  E  E  E  E   
--2-----------------|--------0-----------3-----|--3-----------------------|
--0------------0----|--0-----------------0-----|--0-----0-----------3-----|
--------------------|--0--------0-----------0--|-----0-----0-----0-----0--|
--------------------|-----0-----------0--------|--------------------------|
--0-----------------|--------------------------|--------------------------|
--------------------|--0-----------0-----------|--3-----------3-----------|


  E  E  E  E  E  E  E  E     E  E  E  E  E  E  E  E     E  E  E  E  E  E  E  E   
--------------------------|-----0--------------------|--------0-----------7-----|
--3-----------------3-----|--3-----------------------|--0-----------------0-----|
--------2-----------------|--------6-----------2-----|--0--------0-----------0--|
-----2-----2-----2-----2--|-----------0-----0-----0--|-----0-----------0--------|
--3-----------3-----------|--------------------------|--------------------------|
--------------------------|--5-----------5-----------|--0-----------0-----------|


  E  E  E  E  E  E  E  E     E  E  E  E  E  E  E  E     E  E  E  E  E  E  E  E   
--7-----3-----------7-----|--5-----------------5-----|--5--------------------0--|
--0-----0-----------0-----|--------3-----------------|--------0-----------0-----|
-----0-----0-----0-----0--|--------------------------|--------------------------|
--------------------------|-----2-----2-----2-----2--|-----0-----0-----0--------|
--------------------------|--3-----------3-----------|--------------------------|
--3-----------3-----------|--------------------------|--5-----------5-----------|

  ^                      ^                     ^                                               
  Q    Q    Q    Q       H.           E  E     E  E  H        Q       E  E  E  E  E  E  E  E   
--3----2----0---------|---------------------|----------------------|--------------0--------0--|
--0--------------3----|--2---------------2--|--2--3--0-------------|--------------------0-----|
--0--------------0----|--2------------2-----|--0-----0--------2----|--2-----2-----------------|
--0-------------------|--0------------------|----------------------|-----0-----0-----0--------|
----------------------|---------------------|----------------------|--------------------------|
----------------------|--5------------------|--3-------------------|--5-----------5-----------|

  ^                                                                              
  E  E  E  E  E  E  E  E     E  E  E  E  E  E  E  E     E  E  E  E  E  E  E  E   
--3-----2-----0-----------|--------------------------|--------------------------|
--0-----------------3-----|--2--------------------2--|--2--3--0-----------------|
-----0-----0-----0-----0--|--------2-----------2-----|--0--------0-----0-----2--|
--------------------------|-----0-----0-----0--------|--------------------------|
--------------------------|--------------------------|--------------------3-----|
--0-----------------------|--5-----------5-----------|--3-----------3-----------|


  W                   E  E  E  E   E  E  E  E     E  E   E  E   E  E  Q     
-------------------|--------7-----10-----7-----|-----7----------------7----|
-------------------|--8------------------------|--------10--8--10--8-------|
--2----------------|-----9-----9------9-----9--|---------------------------|
--0----------------|---------------------------|--0------------------------|
-------------------|---------------------------|---------------------------|
--5----------------|---------------------------|---------------------------|


  E  E  E  E   E  E  E  E     E  E   E  E   Q    Q       E  E  E  E  E  E  E  E   
--------7-----10-----7-----|-----7--------------------|--------0-----------3-----|
--8------------------------|--------10--8--10----0----|--0-----------------0-----|
-----9-----9------9-----9--|--------------------------|--0--------0-----------0--|
--0------------------------|--0-----------------------|-----0-----------0--------|
---------------------------|--------------------------|--------------------------|
---------------------------|--------------------------|--0-----------0-----------|


  E  E  E  E  E  E  E  E     E  E  E  E  E  E  E  E     E  E  E  E  E  E  E  E   
--3-----------------------|--------------------------|-----0--------------------|
--0-----0-----------3-----|--3-----------------3-----|--3-----------------------|
-----0-----0-----0-----0--|--------2-----------------|--------6-----------2-----|
--------------------------|-----0-----0-----0-----0--|-----------0-----0-----0--|
--------------------------|--------------------------|--------------------------|
--0-----------0-----------|--0-----------0-----------|--5-----------5-----------|


  E  E  E  E  E  E  E  E     E  E  E  E  E  E  E  E     E  E  E  E  E  E  E  E   
--------0-----------7-----|--7-----3-----------7-----|--5-----------------5-----|
--0-----------------0-----|--0-----0-----------0-----|--------3-----------------|
--0--------0-----------0--|-----0-----0-----0-----0--|--------------------------|
-----0-----------0--------|--------------------------|-----2-----2-----2-----2--|
--------------------------|--------------------------|--3-----------3-----------|
--0-----------0-----------|--3-----------3-----------|--------------------------|


                             ^                 ^        ^                        
  E  E  E  E  E  E  E  E     E  E  E  E  E  E  E  E     E  E  E  E  E  E  E  E   
--5-----0-----------0-----|--3-----------------2--0--|--3-----0-----------2--0--|
--------------------------|--------1-----------1-----|-----0--------------0-----|
--------------------------|--0-----0-----------0-----|--0--------0-----0--------|
-----0-----0-----0-----0--|-----0-----0-----0--------|--------------------------|
--------------------------|--1-----------1-----------|--------------------------|
--5-----------5-----------|--------------------------|--0-----------0-----------|

  ^                          ^                                                   
  E  E  E  E  E  E  E  E     E  E  E  E  E  E  E  E     E  E  E  E  E  E  E  E   
--3--------2--3-----3-----|--7-----------7-----5-----|--5--------------3--2--0--|
-----------1--------1-----|--0-----------0-----------|--------3--------3--------|
--0-----0--------------0--|--0-----0--------------0--|--------------------------|
-----0-----------0--------|-----0-----0-----0--------|-----2-----2--------------|
--1-----------1-----------|--------------------------|--3-----------3-----------|
--------------------------|--0-----------0-----------|--------------------------|

  E  E  E  E  E  E  E  E     E  E  E  E  E  E  E  E     E  E  E  E  E  E  E  E   
--3-----------------3-----|--2--------------0-----0--|--2--------------------0--|
--------0-----------0-----|--------------------3-----|--------0-----------3-----|
--------------------------|--------2-----------------|--------------------------|
-----0-----0-----0-----0--|-----2-----2--------------|-----2-----2-----2--------|
--------------------------|--3-----------3-----------|--0-----------0-----------|
--5-----------5-----------|--------------------------|--------------------------|

          NH         NH    NH    NH         NH            NH                       
    E     E    E     E     E     E    E     E       E     E    H          E    E   
--<>3--------<>2--------<>12-------------------|----------------------------------|
------------------------------------<>3--------|--<>2--------<>2-------------<>2--|
-------<>12-------<>12--------<>12-------<>12--|------------------------<>2-------|
-----------------------------------------------|-------<>12-----------------------|
-----------------------------------------------|----------------------------------|
----0------------------------------------------|----5-----------------------------|

               NH          NH    NH       NH              NH    NH  
    E    E     H           E     E        H.              E     E   
------------------------------------|------------------------<>12--|
--<>2--<>3--<>12--------------<>12--|--<>12------------<>12--------|
---------------0--------<>12--------|------------------------------|
------------------------------------|------------------------------|
------------------------------------|------------------------------|
----3-------------------------------|-----5------------------------|

          NH         NH    NH    NH         NH            NH                       
    E     E    E     E     E     E    E     E       E     E    H          E    E   
--<>3--------<>2--------<>12-------------------|----------------------------------|
------------------------------------<>3--------|--<>2--------<>2-------------<>2--|
-------<>12-------<>12--------<>12-------<>12--|------------------------<>2-------|
-----------------------------------------------|-------<>12-----------------------|
-----------------------------------------------|----------------------------------|
----0------------------------------------------|----5-----------------------------|

               NH                       NH                  ^                   
    E    E     H          E    E        W                   H        Q    Q     
------------------------<>3--<>2--|--<>12----------------|--0--------3----2----|
--<>2--<>3--<>12------------------|----------------------|--0------------------|
---------------0------------------|----------------------|--0------------------|
----------------------------------|----------------------|---------------------|
----------------------------------|----------------------|---------------------|
----3-----------------------------|-----5----------------|--0------------------|

  ^                     ^                     ^                    ^                        
  E  E  H.              H        Q    Q       Q    H.              E  E  E  E  E  E  E  E   
--------0------------|--0--------3----2----|--------------------|--0-----------3-----2-----|
--3------------------|--0------------------|--3-----------------|--0-----------0-----0-----|
--4--6---------------|--0------------------|--4----6------------|--0--------------0-----0--|
--0------------------|---------------------|--0-----------------|--------0--2--------------|
---------------------|---------------------|--------------------|-----0--------------------|
--5------------------|--0------------------|--5-----------------|--0-----------------------|

                                                        ^                  
  E  E  E  E  E  E  E  E     E  E  E  E  E  E  E  E     H.           Q     
--------0-----------------|--0--------------------0--|--2-----------------|
--3-----------------------|--------0-----------0-----|--0------------0----|
-----6--------------6-----|--------------------------|--------------------|
-----0-----0-----0-----0--|-----4-----4-----4--------|--------------------|
--------------------------|--------------------------|--0-----------------|
--5-----------5-----------|--4-----------4-----------|--------------------|

  E  E  E  E  E  E  E  E     E  E  E  E  E  E  E  E     E  E  E  E  E  E  E  E   
--------0-----------3-----|--3-----------------------|--------------------------|
--0-----------------0-----|--0-----0-----------3-----|--3-----------------3-----|
--0--------0-----------0--|-----0-----0-----0-----0--|--------2-----------------|
-----0-----------0--------|--------------------------|-----2-----2-----2-----2--|
--------------------------|--------------------------|--3-----------3-----------|
--0-----------0-----------|--3-----------3-----------|--------------------------|

  E  E  E  E  E  E  E  E     E  E  E  E  E  E  E  E     E  E  E  E  E  E  E  E   
-----0--------------------|--------0-----------7-----|--7-----3-----------7-----|
--3-----------------------|--0-----------------0-----|--0-----0-----------0-----|
--------6-----------2-----|--0--------0-----------0--|-----0-----0-----0-----0--|
-----------0-----0-----0--|-----0-----------0--------|--------------------------|
--------------------------|--------------------------|--------------------------|
--5-----------5-----------|--0-----------0-----------|--3-----------3-----------|

                                                        ^                      ^                   
  E  E  E  E  E  E  E  E     E  E  E  E  E  E  E  E     Q    Q    Q    Q       H.           E  E   
--5-----------------5-----|--5--------------------0--|--3----2----0---------|---------------------|
--------3-----------------|--------0-----------0-----|--0--------------3----|--2---------------2--|
--------------------------|--------------------------|--0--------------0----|--2------------2-----|
-----2-----2-----2-----2--|-----0-----0-----0--------|--0-------------------|--0------------------|
--3-----------3-----------|--------------------------|----------------------|---------------------|
--------------------------|--5-----------5-----------|----------------------|--5------------------|

  ^                                                 ^                        
  E  E  H        Q       E  E  E  E  E  E  E  E     E  E  E  E  E  E  E  E   
----------------------|--------------0--------0--|--3-----2-----0-----------|
--2--3--0-------------|--------------------0-----|--0-----------------3-----|
--0-----0--------2----|--2-----2-----------------|-----0-----0-----0-----0--|
----------------------|-----0-----0-----0--------|--------------------------|
----------------------|--------------------------|--------------------------|
--3-------------------|--5-----------5-----------|--0-----------------------|

  E  E  E  E  E  E  E  E     E  E  E  E  E  E  E  E     W                 
--------------------------|--------------------------|-------------------|
--2--------------------2--|--2--3--0-----------------|-------------------|
--------2-----------2-----|--0--------0-----0-----2--|--2----------------|
-----0-----0-----0--------|--------------------------|--0----------------|
--------------------------|--------------------3-----|-------------------|
--5-----------5-----------|--3-----------3-----------|--5----------------|


  E  E  E  E   E  E  E  E     E  E   E  E   E  E  E  E     Q    Q     Q    Q     
--------7-----10-----7-----|-----7----------------7-----|-------7----10----7----|
--8------------------------|--------10--8--10--8--------|--8----8-----8----8----|
-----9-----9------9-----9--|-------------------------9--|--9----9---------------|
---------------------------|--0-------------------------|-----------------------|
---------------------------|----------------------------|-----------------------|
---------------------------|----------------------------|-----------------------|


  E  E   E  E   H          
-----7-------------------||
--------10--8--10--------||
---------9---------------||
--0----------------------||
-------------------------||
-------------------------||


Duration Legend
---------------
W - whole
H - half
Q - quarter
E - 8th
S - 16th
T - 32nd
X - 64th
. - note dotted
|-n-|  - n-tuplets


Tablature Legend
----------------
L - tied note
x - dead note
g - grace note
(n) - ghost note
> - accentuded note
NH - natural harmonic
AH - artificial harmonic
TH - tapped harmonic
SH - semi harmonic
PH - pitch harmonic
h - hammer on
p - pull off
b - bend
br - bendRelease
pb - preBend
pbr - preBendRelease
brb - bendReleaseBend
\n/ - tremolo bar dip
\n - tremolo bar dive
-/n - tremolo bar Release up
/n\ - tremolo bar inverted dip
/n - tremolo bar return
-\n - tremolo bar Release down
S - shift slide
s - legato slide
/ -  slide into from below or out of upwards
\ -  slide into from above or out of downwards
~ - vibrato
W - wide vibrato
tr - trill
TP - tremolo picking
T - tapping
S - slap
P - pop
< - fade in
^ - brush up
v - brush down
Login or Register to remove this ad.