From Past to Present (The Elder Scrolls V: Skyrim) Guitar Tab

Submitted: Jan 25, 2016 by Bhael

4.25
Average: 4.3 (4 votes)
Download | Listen
Game: The Elder Scrolls V: Skyrim
Composer(s): Jeremy Soule
Style: Arrangement, Artificial harmonics, Fingerstyle, Natural harmonics
Series: The Elder Scrolls

Click here for a video example.

AutoScroll: Slow | Medium | Fast
                            From Past to Present     
                         The Elder Scrolls V: Skyrim                          
                                 Jeremy Soule




        ^                              NH                 ^               NH    
        H        Q    Q       E  E     H.                 H        Q      Q     
D||-------------------0----|------------------------|--------------------------|
A||--------------6---------|-----0------------------|--------------6-----------|
F||------------------------|--5---------------------|--------------------------|
C||--<>12------------------|--------<>12------------|--<>12--------------------|
G||--<>12------------------|------------------------|--<>12-------------<>7----|
C||--<>12------------------|--5---------------------|--<>12--------------------|


                        ^                v                v              
  E  E  H.              H        Q       Q       E  E     H        Q     
---------------------|-----------1------------|-------------------------|
-----0--L------------|--3---------------------|-----0--------------3----|
--5------------------|--2---------------------|--5-----<>12-------------|
---------------------|--0-------------<>19----|--------<>12-------------|
---------------------|--0-------------<>19----|-------------------------|
--5------------------|--0---------------------|--5----------------------|


     NH                        ^               NH                           
     Q    E  E  Q    E   E     H.              Q       E  E  H        Q     
----------------------------|-----------------------|-----------------1----|
----------------3----3p--2--|--2--------------------|--------3-------------|
-------------2--------------|--2--------------------|--2-------------------|
--<>12----------------------|-----------------------|-----0----------------|
----------------------------|---------------<>12----|----------------------|
----------4-----------------|--4--------------------|----------------------|


                                                ^                    
  E  E  H        Q       E  E  H        Q       E  E  H        Q     
--1-------------------|----------------------|----------------------|
-----------------1----|--1--------------1----|-----3----------------|
--------2-------------|--------0-------------|--5-----4--------0----|
-----3----------------|-----2----------------|--0-------------------|
----------------------|--3-------------------|----------------------|
--3-------------------|----------------------|--5-------------------|


  ^                NH           ^           NH                        NH    
  Q    H           Q       Q    H           Q       E  E  H           Q     
------------------------|-------1----------------|--3----------------------|
-------3----------------|-------1----------------|--------1----------------|
--2---------------------|-------2----------------|-----0-----------<>12----|
--0-------------<>19----|----------------<>19----|-------------------------|
--0---------------------|------------------------|--3----------------------|
--0---------------------|--3---------------------|-------------------------|


  ^           NH       NH      ^       NH       NH         
  H           E  E     Q       Q       E  E     Q    Q     
----------------------------|--1--------------------------|
--3-------------------------|--3---------------------1----|
--0-------------------------|--2--------------------------|
--------------------<>12----|--0-------------<>12---------|
-----------<>12-------------|--0----<>19------------------|
--5--------------5----------|--0----------0---------------|


  ^            NH            ^                      
  Q    Q       E  E  Q       E  E  E  E  Q    Q     
--------------------------|------------------------|
--0------------------0----|--0--1------------------|
--0-----------------------|--------2----------2----|
--0-----------------------|--3--------3------------|
------------<>12----------|------------------------|
-------5----------5-------|--3-----------3---------|


  ^            NH       NH      ^       NH       NH            
  Q    Q       E  E     Q       Q       E  E     E  E  E   E   
-----------------------------|--1-----------------------------|
--0--------------------------|--3----------------------1s--3--|
--0--------------------------|--2-----------------------------|
--0------------------<>12----|--0-------------<>12------------|
------------<>12-------------|--0----<>19---------------------|
-------5----------5----------|--0----------0--------0---------|


  ^                ^       ^                        ^                  
  Q    E  E  E  E  Q       E  E  E  E  Q    Q       H.           Q     
------------------------|------------------------|---------------0----|
--3----0-----------0----|--0--1------------------|--------------------|
--0----------2-----0----|--------2----------2----|--2-----------------|
--0----------0-----0----|--3--------3------------|--0-----------------|
------------------------|------------------------|--0-----------------|
--5-------5-----5-------|--3-----------3---------|--0-----------------|


    Q      Q      Q      Q       E    E  E    E  E    E    Q     
------------------------------|----------3-------3--------------|
----------------<>1-----------|---------------------------------|
---------<>2-----------<>2----|--L--<>2-------------<>2---------|
--<>3-------------------------|-------------<>3----------<>3----|
------------------------------|---------------------------------|
------------------------------|---------------------------------|


    Q      Q      Q      Q         E  E    E  E    E  E    E  E   
------------------------------|-------0-------0-------0-------0--|
----------------<>1-----------|------------------<>1-------------|
---------<>2-----------<>2----|----------<>2-------------<>2-----|
--<>3-------------------------|--<>3-----------------------------|
------------------------------|----------------------------------|
----0-------------------------|----------------------------------|


        NH       NH       NH       NH          NH          ^     
  E     E  E     E  E     E  E     E     E     E  H        Q     
-----------------------------1--------|--1----------------------|
-----------3--------3-----------------|--------------------3----|
--2-----------------------------------|-----------2--------2----|
-----------------------<>12-----------|-----<>19----------------|
--------------<>12--------------<>19--|-------------------------|
-----<>12-----------------------------|-------------------------|


        NH       NH       NH       NH          ^                  
  E     E  E     E  E     E  E     E     E     E   H        Q     
--------------------------------------|--------------------------|
--1--------------------------1--------|--1-----3p--0-------------|
-----------2--------0-----------------|---------------------0----|
-----------------------<>12-----------|-----<>19-----------------|
--------------<>12--------------<>19--|--------------------------|
-----<>12-----------------------------|--------------------------|


        NH       NH       NH       NH          NH          ^     
  E     E  E     E  E     E  E     E     E     E  H        Q     
-----------------------------5--------|--5-----------------5----|
-----------3--------3-----------------|-----------3--------3----|
--2-----------------------------------|-------------------------|
-----------------------<>12-----------|-----<>19----------------|
--------------<>12--------------<>19--|-------------------------|
-----<>12-----------------------------|-------------------------|


  ^          NH       NH       NH                  ^     
  Q    E     E  E     E  E     E     H.            Q     
--3----------------------3--------|---------------------|
--1----1--------------------------|--3~------------3----|
----------------0-----------<>12--|----------------3----|
-------------------<>12-----------|---------------------|
----------<>12--------------------|---------------------|
----------------------------------|---------------------|


             NH       NH                NH       NH       NH        
  Q    E     E  E     E  E  E     E     E  E     E  E     E  E  E   
--1-------------------------0--|--1-----------------------------0--|
--3----------------------3-----|-----------3--------3--------3-----|
-------3--------3--------------|-----------------------------------|
-------------------<>19--------|--------------<>12-----------------|
--1----------------------------|-----<>12--------------<>19--------|
----------<>19-----------------|--0--------------------------------|


               NH       NH                NH       NH       NH         
  E   E  E     E  E     E  E  E     E     E  E     E  E     E  E   E   
--1p--0--1--------1--------1--3--|--5--------------------------5s--3--|
---------3--------3--------------|-----------3--------3---------------|
---------------------<>19--------|------------------------------------|
------------<>19-----------------|--------------<>12------------------|
--1------------------------------|-----<>12--------------<>19---------|
---------------------------------|--0---------------------------------|


                   NH                           NH           
  E  E    E  E     E  E  E  S S    Q.     E     E  E  E  E   
--3-------------------1--L--0---|--1------------------1-----|
-----1-------1----------------3-|---------------------------|
----------------<>12------------|---------3--------3-----3--|
--------<>2---------------------|---------------------------|
--3-----------------------------|--1------------------------|
--------------------------------|------------<>19-----------|


              NH       NH       NH    ^                   
  E  E  E     E  E     E  E     E     H.            Q     
--0--------------0-----------------|--0------------------|
-----3--------------------2--------|--2------------10----|
--------2--------------------------|--2------------------|
-----------<>19-----<>12-----<>12--|---------------------|
--0--------------------------------|--0------------------|
-----------------------------------|---------------------|


                                 ^                                    
   S  S  S  S  S  S  S  S  Q     Q       S S S S S S S S Q    S S E   
--13----------12----------10----------|--7-------7-------7--------7--|
--------10----------10----------13----|--------8-------8------8------|
-----10----10----10----10-------10----|------7-------7----------7----|
---0----------------------------------|----5-------5-----------------|
--------------------------------------|------------------------------|
--------------------------------------|------------------------------|


     NH                                                               
     S S S S S S S S Q    S S E     S S S S S S S S   Q     S  S  E   
---------8-L-5-------5--------5--|--7-------8--------------------10--|
--<>12-------------6------6------|--------8-------8---L----10--------|
-----------------5----------5----|------7-------7---<>7-------10-----|
---------------3-----------------|----5-------5----------------------|
-------8-------------------------|-----------------------------------|
---------------------------------|-----------------------------------|


                                ^                                     
   S  S  S  S  S S  S  S  Q     E  E     S S S S S S S S Q    S S E   
--13----------12---------10--------7--|--L-------7-------7--------7--|
--------10------------10-------13-----|--------0-------0------8------|
-----10----10------10----------10-----|------7-------7----------7----|
---0-------------0--------------------|----5-------5-----------------|
--------------------------------------|------------------------------|
--------------------------------------|------------------------------|


     NH                                         NH       NH       NH  
     S S S S S S S S Q    S S E     Q     E     E  E     E  E     E   
---------8-L-5-------5--------5--|--5~-------------5-----------------|
--<>12-------------6------6------|--------6-----------------6--------|
-----------------5----------5----|-----------------------------------|
---------------3-----------------|-----------------------------------|
-------8-------------------------|-----------<>19-----<>19-----<>19--|
---------------------------------|--0--------------------------------|


  ^          NH       NH       NH                  NH       NH       
  Q    E     E  E     E  E     E       E  E  E     E  E     E  Q     
--5-------------5-----------------||------5--------------------0----|
--6----6-----------------6--------||---------6--------6-------------|
--7-------------------------------||*--7----------------------------|
-------------------<>19-----------||*--------------------<>19-------|
----------<>19--------------<>19--||------------<>19----------------|
--0-------------------------------||---0----------------------------|


           NH             NH         ^             NH       NH       
  E  E     E  E  E  E     E  E       E  E  Q       E  E     E  E     
-----------------1-----------0---||-------------------3--------3---||
-----0--------0-----0------------||-----0--L-----------------------||
--5-----------------------------*||--5----------------------------*||
--------<>12--------------------*||--0----------<>12-----<>19-----*||
-----------------------<>19------||--------------------------------||
---------------------------------||--5-----------------------------||


           NH                                  NH       NH     
  E  E     E  E  E  E  E  E     E  E  E  E     E  E     E  E   
-----------------0--------0--|-----------0--------0--------0--|
-----0--------0-----0--------|--------3-----------------------|
--5--------------------5-----|-----2-----------------<>19-----|
--------<>12-----------------|--------------<>19--------------|
-----------------------------|--0-----------------------------|
--5--------------------------|--------------------------------|


  ^                                                              ^     
  H.           Q       E  E  E  E  Q    Q       E  E  E  E  Q    Q     
--0-----------------|-------------------1----|--1---------------------|
--2-----------------|--------3---------------|-------------------1----|
--2------------2----|--2--------2------------|--------2----------2----|
--------------------|-----0--------0---------|-----3-----3------------|
--0-----------------|------------------------|------------------------|
--------------------|------------------------|--3-----------3---------|


                   ^       ^                        ^                    
  E  E  E  E  Q    Q       E  E  E  E  Q    Q       Q    H        E  E   
------------------------|------------------------|----------------5-----|
--1----------------1----|-----3------------------|-------3--------------|
--------0----------0----|--5-----4----------0----|--2-------------------|
-----2-----2------------|--0--------0------------|--0-------------------|
--3-----------3---------|------------------------|-------------------0--|
------------------------|--5-----------5---------|--0-------------------|


                    ^                          ^       ^           NH          
  E  E  E  E  E  E  Q        E  E  E  E  E  E  Q       H           E  E  Q     
--5-----------------5----|---------------------3----|--------------------0----|
--------6-----------6----|---------1-----------1----|--3----------------------|
--------------5-----5----|--12-----------0-----0----|--0----------------------|
-----------3-------------|------------2-----2-------|--0----------------------|
-----3-----------3-------|------3-------------------|-----------<>12----------|
--3----------------------|--------------------------|--5--------------5-------|


  ^       NH       NH       NH          NH       NH       NH       NH     
  Q       E  E     E  E     E  E        E  E     E  E     E  E     E  E   
----------------------1--------1--|--------------------------------------|
--3----------3--------------------|--------3--------3--------1--------3--|
--2-------------------------------|--------------------------------------|
--0-------------<>12--------------|--<>19--------------<>12--------------|
-------<>12--------------<>19-----|-----------<>19--------------<>12-----|
--0-------------------------------|--------------------------------------|


           NH       NH       NH          NH       NH       NH        
  E  E     E  E     E  E     E  E        E  E     E  E     H         
-----------------------1--------1--|--------1-----------------------|
--------------3--------------------|-----------------3--------------|
-----2-----------------------------|--------------------------------|
-----------------<>12--------------|--<>19--------------<>12--------|
--------<>12--------------<>19-----|-----------<>19-----------------|
--0--------------------------------|--------------------------------|


  W                  
-------------------||
-------------------||
-------------------||
--L----------------||
-------------------||
-------------------||

Login or Register to remove this ad.