Far Horizons (The Elder Scrolls V: Skyrim) Guitar Tab

Submitted: Jan 11, 2018 by Bhael

5
Average: 5 (3 votes)
Download | Listen
Game: The Elder Scrolls V: Skyrim
Composer(s): Jeremy Soule
Style: Arrangement, Artificial harmonics, Fingerstyle, Natural harmonics
Series: The Elder Scrolls

Click here for a video example.

AutoScroll: Slow | Medium | Fast
                                 Far Horizons 
                         The Elder Scrolls V: Skyrim                                  
                                 Jeremy Soule




           NH    NH       NH                      NH         
     E     E     E  E     H           H           Q    Q     
D||--0--------------0--------------|-------------------0----|
A||-----<>12-----------------------|------------------------|
F||--------------------<>12--------|------------------------|
C||-----------<>19-----------------|------------------------|
G||--------------------------------|-----------<>19---------|
D||--0-----------------------------|--8---------------------|


        NH       NH                         NH         
  E     E  E     E  H           H           Q    Q     
--0--------------------------|-------------------0----|
-----------7--------0--------|------------------------|
-----<>12--------------------|------------------------|
--0-----------<>12-----------|-----------<>12---------|
-----------------------------|------------------------|
-----------------------------|--7---------------------|


  ^     NH    NH       NH                       NH         
  E     E     E  E     H            H           Q    Q     
--0--------------0--------------|--------------------0----|
-----<>12-----------------------|-------------------------|
--0-----------------<>12--------|-------------------------|
-----------<>19-----------------|------------<>12---------|
--------------------------------|-------------------------|
--8-----------------------------|--10---------------------|


        NH       NH                                 
  E     E  E     E  H           H        Q    Q     
--0--------------------------|----------------0----|
-----------7--------0--------|---------------------|
-----<>12--------------------|---------------------|
--------------<>12-----------|-----------4---------|
--0--------------------------|--2------------------|
-----------------------------|---------------------|


        NH       NH      ^                        NH    
  E     E  E     E  Q    Q       H        Q       Q     
--0--------2--------0----0----|--0--------2------------|
------------------------------|------------------------|
-----<>12----------------0----|--2-------------<>12----|
--------------<>12------------|--0---------------------|
--3---------------------------|------------------------|
------------------------------|------------------------|


        NH       NH              ^           NH         
  E     E  E     E  Q    Q       H           Q    Q     
-----------2--------2---------|--2----------------2----|
--3-----------------3----3----|--3---------------------|
-----<>12-----------4----4----|-----------<>12---------|
--------------<>12------------|------------------------|
------------------------------|--2---------------------|
--0---------------------------|------------------------|


        NH       NH      ^       ^                     
  E     E  E     E  Q    Q       Q    Q     Q    Q     
--0--------2--------0----0----|--0--------------------|
------------------------------|-------3~----L---------|
-----<>12----------------0----|--2---------------2----|
--------------<>12------------|--0--------------------|
--3---------------------------|-----------------------|
------------------------------|-----------------------|


  Q    E  E  E  E  E  E     Q.     E  Q    Q     
----------------0--------|-----------------0----|
--0----------------0-----|--4---------4---------|
-------------4-----------|--4---------4---------|
----------4-----------4--|----------------------|
-------2-----------------|---------2------------|
-------------------------|----------------------|


        NH    NH    NH                               NH         
  E     E     E     E  E  E  E  E     E  E  E  E     Q    Q     
--0--------------------3-----------|--------------<>12----2----|
-----<>12--------------------------|--------1-----<>13---------|
-----------------------------0-----|-----0-----0--<>12---------|
-----------<>19-----------4-----2--|---------------------------|
-----------------<>19--------------|--3------------------------|
--0--------------------------------|---------------------------|


               NH                                       
  E  E   E     E  E  E  E  E     E  E  E  E  Q    Q     
--0---------------------------|-------------------0----|
-----8------------0-----------|--------3-----3---------|
--------11--------------0-----|--------4-----4---------|
--0---------<>12-----4-----4--|-----4------------------|
------------------------------|--2--------2------------|
------------------------------|------------------------|


                  NH                                  
  E  E   E  E     E  E  Q       Q.     E  E  E  Q     
-----7------------------0----|------------------0----|
--------10-----<>12----------|--3---------3----------|
--9---------9--<>12----------|---------2--------2----|
-----------------------------|--0------------0-------|
-----------------------------|-----------------------|
--8------------------8-------|-----------------------|


        NH       NH              ^                      
  E     E  E     E  Q    Q       Q.      E  E  E  Q     
--0---------------------------|-------------------0----|
-----------7--------0----0----|--4----------4----------|
-----<>12---------------------|--4~------4--4----------|
--------------<>12------------|------------------------|
--0---------------------------|--2-------------2-------|
------------------------------|------------------------|


  E  E  E  E  E  E  E  S  S    E  E  E  E  E  E  Q     
--0-----------2--------2h-3-|--2----------------------|
--------0-----------0-------|--------3-----3-----3----|
-----0-----0-----0----------|--------2-----2----------|
----------------------------|-----0-----0-----0-------|
----------------------------|-------------------------|
--0-------------------------|-------------------------|


  E  E  E  E  Q    E  S  S    Q    E  E  E  E  E  E   
--------0-----2-------3p-2-|--0----------------------|
--3----------------0-------|-------------0-----------|
-----4-----4---------------|----------0-----0-----0--|
---------------------------|-------2-----------2-----|
--2------------------------|-------------------------|
---------------------------|--0----------------------|


                          NH    ^                NH                           
  E  E  E  E  E  E  E     E     H        Q       Q       Q.     E  Q    Q     
--0-----------2--------------|--2--------3------------|--7-------------------|
--------0-----------0--------|--3---------------------|----------------------|
-----0-----0-----0-----<>12--|------------------------|------------0----0----|
-----------------------------|--0-------------<>19----|---------0------------|
-----------------------------|------------------------|----------------------|
--0--------------------------|------------------------|--3-------------------|


  H        H           H        Q.     S S    E  E  Q    Q.     E   
-----------3--------|--2---------------0---|-----------------------|
--------------------|--3--------3--------3-|-------------0------3--|
--------------------|--4--------4----------|--6----------0---------|
--------------------|-----------5----------|--------7--------------|
--------------------|--2-------------------|-----0-----------------|
--3-----------------|-----------3----------|-------------3---------|


  Q    Q    Q.     E     E  E  Q    Q       E  E  Q    Q     
-------0--------------|--------0---------|------------------|
--3---------3------2--|--2----------2----|--3--2--0---------|
--4---------4---------|------------------|------------------|
----------------------|-----2------------|-------------4----|
--2-------------------|--0---------------|--2---------------|
------------3---------|------------------|------------------|


  E  E  E  E  E  E     E  E  E  E  Q       E  E  E  E  Q     
--------------------|--0-----------0----|--0-----------0----|
--3-----------------|-----------2-------|--------------0----|
--------0-----0-----|--------2----------|-------------------|
-----0-----0-----0--|-----2-------------|--------4----------|
--------------------|--0----------------|-----4-------------|
--3-----------------|-------------------|--2--------2-------|


  E  E  E  E  E  E     E  E  E  E  E  E     E  E  E  E  E  E   
--2-----------------|--------------------|--------------------|
-----------3--------|--3-----------3-----|--3-----2-----------|
--------4-----4-----|--------0-----------|--------------2-----|
-----4-----------4--|-----0-----0-----0--|-----2-----2-----2--|
--2-----------------|--------------------|--0-----------------|
--------------------|--3-----------------|--------------------|


                                               NH       NH        
  E  E  E  E  Q       Q    E  Q    E     E     E  E     E  E  E   
-------------------|------------------|--------------------------|
--2----------------|-------0--0----0--|--3--------3-----------3--|
--------2-----2----|--4----4----------|--------------<>19--------|
-----4-----4-------|------------------|-----<>19-----------------|
-------------------|--2-------2-------|--------------------------|
--2----------------|------------------|--3-----------------3-----|


        NH       NH                NH       NH        
  E     E  E     E  E  E     E     E  E     E  E  E   
--------------------------|--------------------------|
--3--------2-----------2--|--2--------2-----------0--|
--------------<>19--------|--------------<>19--------|
-----<>19-----------------|-----<>19-----------------|
--0-----------------0-----|--------------------------|
--------------------------|--2-----------------2-----|


        NH       NH                NH       NH        
  E     E  E     E  E  E     E     E  E     E  E  E   
--------------------------|--------------------------|
--0--------0-----------2--|--3--------3-----------3--|
--------------<>19--------|--------------<>19--------|
-----<>19-----------------|-----<>19-----------------|
--------------------------|--------------------------|
--3-----------------3-----|--3-----------------3-----|


        NH       NH                  NH       NH        
  E     E  E     E  E   E      E     E  E     E  E  E   
-----------------------(0)--|--------------------------|
-----------2----------------|--2--------2-----------3--|
--------------<>19----------|--------------<>19--------|
-----<>19-------------------|-----<>19-----------------|
--0-----------------0-------|--------------------------|
----------------------------|--2-----------------2-----|


        NH       NH                NH       NH        
  E     E  E     E  E  E     E     E  E     E  E  E   
--------------------------|--------------------------|
--3--------3-----------3--|--3--------3-----------3--|
--------------<>19--------|--------------<>19--------|
-----<>19-----------------|-----<>19-----------------|
--2-----------------2-----|--------------------------|
--------------------------|--3-----------------3-----|


        NH       NH                NH       NH                            
  E     E  E     E  E  E     E     E  E     E  E  E     Q    E  E  E  E   
--0--------0-----------0--|--0--------0-----------2--|--2----2--2--------|
--------------------------|--------------------------|-------3--3--------|
--------------<>19--------|--------------<>19--------|-------4--4--4--4--|
-----<>19-----------------|-----<>19-----------------|-------------4--4--|
--0-----------------0-----|--------------------------|--2----------2-----|
--------------------------|--2-----------------2-----|-------------------|


        NH       NH                NH       NH        
  E     E  E     E  E  E     E     E  E     E  E  E   
--------------------------|--------------------------|
--3--------3-----------3--|--3--------2-----------2--|
--------------<>19--------|--------------<>19--------|
-----<>19-----------------|-----<>19-----------------|
--------------------------|--0-----------------0-----|
--3-----------------3-----|--------------------------|


        NH       NH                                 NH    NH    NH              
  E     E  E     E  E  E     H        Q       E     E     E     E  E  E  E  E   
--------------------------|-----------0----|--0--------------------3-----------|
--2--------2-----------0--|----------------|-----<>12--------------------------|
--------------<>19--------|--4-------------|-----------------------------0-----|
-----<>19-----------------|----------------|-----------<>19-----------4-----2--|
--------------------------|--2-------------|-----------------<>19--------------|
--2-----------------2-----|----------------|--0--------------------------------|


                 NH                        NH              
  E  E  E  E     Q    Q       E  E   E     E  E  E  E  E   
--------------<>12----2----|--0---------------------------|
--------1-----<>13---------|-----8------------0-----------|
-----0-----0--<>12---------|--------11--------------0-----|
---------------------------|--0---------<>12-----4-----4--|
--3------------------------|------------------------------|
---------------------------|------------------------------|


                                           NH                                  
  E  E  E  E  Q    Q       E  E   E  E     E  E  Q       Q.     E  E  E  Q     
--------0----------0----|-----7------------------0----|------------------0----|
--------------3---------|--------10-----<>12----------|--3---------3----------|
--------4-----4---------|--9---------9--<>12----------|---------2--------2----|
-----4------------------|-----------------------------|--0------------0-------|
--2--------2------------|-----------------------------|-----------------------|
------------------------|--8------------------8-------|-----------------------|


        NH       NH                                           
                           |-3-|                              
  E     E  E     E  Q    S S S S S    E  E  E  E  Q     Q     
--0--------------------------------|--------------------0----|
-----------7--------0----0-0-1-0---|--0-----------4~---------|
-----<>12------------------------2-|-----------4-------------|
--------------<>12-----------------|--------4----------------|
--0--------------------------------|-----2-------------------|
-----------------------------------|-------------------------|


                          NH                           
  E  E  E  E  E  E  E     E     E  E  E  E  Q    Q     
--0-----------2--------------|--2---------------------|
--------0-----------0--------|--------3-----3----3----|
-----0-----0-----0-----<>12--|--------2-----2---------|
-----------------------------|-----0-----0------------|
-----------------------------|------------------------|
--0--------------------------|------------------------|


  E  E  E  E  Q    E  S  S    Q    E  E  E  E  E  E   
--------0-----2-------3p-2-|--0----------------------|
--3------------------------|-------------0-----------|
-----4-----4-------4-------|----------0-----0-----0--|
---------------------------|-------2-----------2-----|
--2------------------------|-------------------------|
---------------------------|--0----------------------|


                                                   NH    
  E  E  E  E  E  E  E  S  S    E  E  E  E  Q       Q     
--0-----------2--------2h-3-|--2-----------3------------|
--------0-----------0-------|-----------3---------------|
-----0-----0-----0----------|--------2------------------|
----------------------------|-----0-------------<>19----|
----------------------------|---------------------------|
--0-------------------------|---------------------------|


                                      NH                                  
  Q.     E  E  E  Q       H           Q    Q       E  E  Q    Q    E  E   
--7--------------------|-------------------2----|--2---------------0-----|
-----------------------|------------------------|--3-----3----3-------3--|
------------0-----0----|-----------<>12---------|--4--4-------4----------|
---------0-----0-------|------------------------|-------------5----------|
-----------------------|------------------------|--2---------------------|
--3--------------------|--3---------------------|-------------3----------|


  Q    Q    Q    Q       H        H         
----------------------|--------------------|
--2-------------------|-----------2--------|
------------2----L----|-----------2--------|
-------2--------------|--------------------|
--0-------------------|--0-----------------|
----------------------|--------------------|


  ^                                                    v         
       |-3-| |-3-| |-3-| |-3-| |-3-| |-3-|                       
  Q    S S S S S S S S S S S S S S S S S S    H        H         
-------------------------------------------|-----------0--------|
-------------------------------------------|-----------0--------|
--4--------4-----4-----4-----4-----4-----4-|-----------4--------|
--4------4-----4-----4-----4-----4-----4---|-----------4--------|
--2----2-----2-----2-----2-----2-----2-----|--2--------2--------|
-------------------------------------------|--------------------|


  W                  
--L----------------||
--L----------------||
--L----------------||
--L----------------||
--L----------------||
-------------------||




Duration Legend
---------------
W - whole
H - half
Q - quarter
E - 8th
S - 16th
T - 32nd
X - 64th
. - note dotted
|-n-|  - n-tuplets


Tablature Legend
----------------
L - tied note
x - dead note
g - grace note
(n) - ghost note
> - accentuded note
NH - natural harmonic
AH - artificial harmonic
TH - tapped harmonic
SH - semi harmonic
PH - pitch harmonic
h - hammer on
p - pull off
b - bend
br - bendRelease
pb - preBend
pbr - preBendRelease
brb - bendReleaseBend
\n/ - tremolo bar dip
\n - tremolo bar dive
-/n - tremolo bar Release up
/n\ - tremolo bar inverted dip
/n - tremolo bar return
-\n - tremolo bar Release down
S - shift slide
s - legato slide
/ -  slide into from below or out of upwards
\ -  slide into from above or out of downwards
~ - vibrato
W - wide vibrato
tr - trill
TP - tremolo picking
T - tapping
S - slap
P - pop
< - fade in
^ - brush up
v - brush down 
Login or Register to remove this ad.

3 comments on Far Horizons

I love this arrangement, but

5

I love this arrangement, but there are so many huge unnecessary fret jumps. All those 19th nh can literally be played on the 7th.

And then other bars like this one
NH NH ^ NH
E E E E Q Q H Q Q
--0--------2--------0----0----|--0--------2------------|
------------------------------|------------------------|
-----<>12----------------0----|--2-------------<>12----|
--------------<>12------------|--0---------------------|
--3---------------------------|------------------------|
------------------------------|------------------------|

That can be played like this
NH NH ^ NH
E E E E Q Q H Q Q
--0-----------------0----0----|--0---------------------|
------------------------------|-----------7------------|
-----<>12--11------------0----|----------------<>12----|
--------------<>12------------|--7---------------------|
------------------------------|------------------------|
--8---------------------------|--10--------------------|

UPDATE:
Just saw your recording and saw you play like I said, so I'm guessing it's a port issue haha

Hi! Playing the harmonics on

Hi! Playing the harmonics on the 19th fret actually makes more mechanical sense, simply owing to the fact that these are done entirely with the right hand, allowing the left hand to remain where it is and thus preventing any of the fret jumps you mentioned (y) Cheers!

I agree, I have a much easier

I agree, I have a much easier time playing these with the harmonics on the 19th fret using the right hand.

Playing on the 7th fret actually leads me to be doing much more jumping around.