Ads

Distant Horizons (The Elder Scrolls V: Skyrim) Guitar Tab

Submitted: Feb 21, 2014 by Bhael

5
Average: 5 (13 votes)
Download | Listen
Game: The Elder Scrolls V: Skyrim
Composer(s): Jeremy Soule
Style: Arrangement, Fingerstyle, Natural harmonics
Series: The Elder Scrolls

Click here for a video example.

AutoScroll: Slow | Medium | Fast
                             Distant Horizons
                                  Skyrim 
                               Jeremy Soule



        NH     NH      NH        NH            NH       NH      NH     NH    
        Q      Q       Q         H        E    E        Q       Q      Q     
E||-------------------------|---------------------|-------------------------|
B||--<>12-------------------|---------------------|-------------------------|
G||-----------------<>12----|---------------------|-------------------------|
D||----------<>7------------|---------------------|----------<>12----<>7----|
A||-------------------------|--<>7--------L--<>7--|-------------------------|
D||-------------------------|---------------------|--<>12-------------------|


    NH                ^       NH      NH        NH            NH  
    H.                Q       Q       Q         H        E    E   
-----------------|-------------------------|---------------------|
-----------------|-----------------<>12----|---------------------|
-----------------|---------<>12------------|---------------------|
-----------------|--<>7--------------------|---------------------|
--<>7------------|--<>7--------------------|--<>7--------L--<>7--|
-----------------|--<>7--------------------|---------------------|


     NH      NH     NH        NH               ^               
     Q       Q      Q         H        Q       Q    Q    Q     
-------------------------|------------------|-----------------|
-------------------------|------------------|--0--------------|
-------------------------|------------------|-------2----0----|
----------<>12----<>7----|------------------|--2--------------|
-------------------------|--<>7--------L----|--0--------------|
--<>12-------------------|------------------|-----------------|


  ^                                                   ^               
  H        E  E     Q    Q    Q       H.              Q    Q    Q     
-----------------|-----------------|---------------|-----------------|
-----------------|-----------------|---------------|------------0----|
-----------------|------------2----|---------------|--2----0---------|
--2--------L--2--|-------0---------|--2------------|--2--------------|
--2--------------|-------0---------|---------------|--0--------------|
--2--------------|--3--------------|---------------|-----------------|


  ^                                                        ^          
  H        E  E     Q    Q    Q       H.              Q    Q    Q     
-----------------|-----------------|---------------|--7----5---------|
-----------------|-----------------|---------------|-------5----8----|
-----------------|-----------------|---------------|-------5---------|
--2--------L--2--|-------0----2----|--2------------|-----------------|
--2--------------|-------3---------|---------------|--0--------------|
--2--------------|--5--------------|--0------------|-----------------|


       ^                 ^                  ^                 ^          
  Q    Q.     E     Q    Q    Q       Q     H            Q    Q    Q     
--0-----------0--|------------5----|--0---------------|--5---------7----|
-------0---------|-------3---------|-------(3)--------|-------8---------|
-------0---------|-------5---------|-------(2)--------|-------5---------|
-----------------|-----------------|------------------|-----------------|
--7--------------|-----------------|------------------|--0--------------|
-----------------|--5--------------|--0---------------|-----------------|


                                              ^           
  Q     Q.      E     Q    Q    Q       Q     Q.      E   
--0-------------0--|------------5----|--0----------------|
-------------------|-------3---------|-------(3)------0--|
-------(0)---------|-------5---------|-------(2)---------|
-------------------|-----------------|-------------------|
--7----------------|-----------------|-------------------|
-------------------|--5--------------|--0----------------|


            |--3--|                                      |--3--|       
  E  E  E.  S  S  S S E     E  E  Q.     E     E  E  E.  S  S  S S E   
-------------------------|------------------|-------------------------|
--------1---3h-5p-3---0--|--------1------0--|------------3h-5p-3---0--|
--------------------5----|------------------|--------5-----------5----|
-----2-------------------|------------------|-----0-------------------|
--0----------------------|-----2------------|-------------------------|
-------------------------|--2---------------|--5----------------------|


                                                     ^      ^   
                               |--3--|                          
  E  E  Q.     E     E  E  E.  S  S  S S E     E  E  Q.     E   
------------------|-------------------------|--------3------0--|
---------------0--|--------1---3h-5p-3---0--|--------1------0--|
-----2--L---------|--------------------5----|--------0------0--|
------------------|-----2-------------------|------------------|
------------------|--0----------------------|-----2------------|
--0---------------|-------------------------|--2---------------|


                                                 NH                
            |--3--|                                                
  E  E  E.  S  S  S S E     E  E  H              W                 
-------------------------|-----------------|--<>12----------------|
--------3---3h-5p-3---0--|-----------------|----------------------|
--------5-----------5----|-----2--L--------|----------------------|
-----0-------------------|-----------------|----------------------|
-------------------------|-----------------|----------------------|
--5----------------------|--0--------------|----------------------|


     NH      NH       NH                                             
     E  E    E  E     Q       E  E  E  E  E  E     E  E  E  E  Q     
---------------------------|--0--------------0--|--------------5----|
--<>12---------------------|--------------------|--------3----------|
-------------------<>12----|--------------------|-----0-----0-------|
-----------<>7-------------|-----------2--L-----|-------------------|
--------0-------0----------|--------2-----------|-------------------|
---------------------------|-----2--------------|--5----------------|


                    NH       NH       NH                             
  H.                E  E     E  E     Q       E  E   E   E   E   E   
--0------------|---------------------------|--0---------------------|
---------------|-------------------<>12----|--------(0)-----(0)-----|
---------------|----------<>12-------------|------------------------|
---------------|--<>7----------------------|---------------------2--|
---------------|-------0--------0----------|-------------2----------|
--0------------|---------------------------|-----2------------------|


  E  E  E  E  Q       H.              E  E  E  E  E  E     E  E  E  E   E  E   
-------------------|---------------|--7-----5-----------|--0---------------0--|
-------------------|---------------|--------------8-----|---------------------|
-------------------|---------------|-----5-----5-----5--|------------------0--|
--2-----0-----2----|--2------------|--------------------|-----------2h--4-----|
-----------3-------|---------------|--0-----------------|--------2------------|
-----5-------------|--0------------|--------------------|-----2---------------|


  E  E  E  E  E  E     Q    H            E  E  E  E  E  E   
--------------5-----|--0--------------|--5-----------7-----|
--------3-----------|-------7~--------|--------8-----------|
-----0-----0-----0--|-----------------|-----5-----5-----5--|
--------------------|-----------------|--------------------|
--------------------|-----------------|--0-----------------|
--5-----------------|--0--------------|--------------------|


        ^                                                      
  E  E  E  E   E   E     E  E  E  E  Q       Q    E  E  E  E   
--0-------------------|--0-----------5----|--0----------0-----|
--------0-------------|--------3----------|----------3-----3--|
--------0-------------|-----------0-------|-------2-----------|
-----------4p--2p--0--|--2-----0----------|-------------------|
----------------------|-------------------|-------------------|
-----2----------------|-----5-------------|--0----------------|


  E  E  E  E  E  E     E  E  E  E  E  E     E  E  E  E  E  E   
-----------0--------|-----------0--------|-----------0--------|
--------2-----2-----|--------2-----2-----|--------1-----1-----|
-----2-----------2--|-----2-----------2--|-----2-----------2--|
--------------------|--------------------|--------------------|
--0-----------------|--0-----------------|--0-----------------|
--------------------|--------------------|--------------------|


                        T                   NH                             
  E  E  E  E  E  E      H.                  H.              H.             
-----------0--------|-----------------|------------------|---------------||
--------1-----1-----|--(2)------------|------------------|---------------||
-----2-----------2--|-----------------|------------------|---------------||
--------------------|-----------------|--<>19------------|--L------------||
--0-----------------|---0-------------|-----L------------|---------------||
--------------------|-----------------|------------------|---------------|| 
Login or Register to remove this ad.

1 comment on Distant Horizons

Underrated

5

This sounds absolutely beautiful on guitar, this isn't exactly my favorite piece in Skyrim but I see it in a different way now.
Thanks once again Harry for the outstanding tab.