Ads

Dawn & Awake Medley (The Elder Scrolls V: Skyrim) Guitar Tab

Submitted: Jun 09, 2015 by Matatiahu

5
Average: 5 (2 votes)
Download | Listen
Game: The Elder Scrolls V: Skyrim
Composer(s): Jeremy Soule
Style: Arrangement, Artificial harmonics, Fingerstyle, Natural harmonics
Series: The Elder Scrolls

Click here for a video example.

AutoScroll: Slow | Medium | Fast
                                                Dawn-Awake
                                       The Elder Scrolls V: Skyrim
                                               Jeremy Soule

Tune: standard

Capo on the 3rd fret



E||--------------5------------|--3---------2-0------------|
B||--5-------5-----------5----|--0------------------------|
G||------2---2-------2---2----|--------0------------------|
D||----2---2---2---2---2---2--|------2---2-------2---2----|
A||--0-----------0------------|----2-------2---2---2---2--|
E||---------------------------|--0-----------0------------|

--------------5------------|--3---------------------0--|
--5-------5-----------5----|--0-------------------0----|
------2---2-------2---2----|--0-----------------0------|
----2---2---2---2---2---2--|------2---2-------2--------|
--0-----------0------------|----2---2---2---2----------|
---------------------------|--0-----------0------------|

--0-------0---3-------0----|--2-------0----------------|
---------------------------|------3-------3------------|
------2-----------2--------|----2---2-------------2----|
----2---2---2---2---2---2--|--0-----------0------------|
--0------------------------|---------------------------|
---------------------------|---------------------------|

-------------------|------------0---0--|
--0----------------|---------0---------|
------0---0---0----|------0------------|
----4---4---4---4--|----1--------------|
--2----------------|--2----------------|
-------------------|-------------------|

--0-----------2-------3----|--2-------0----------------|
------0---0-------0---0----|--------------3------------|
----0---0---0---0---0---0--|------4---4-------4---4----|
--2-----------2------------|----4---4---4---4---4---4--|
---------------------------|--2-----------2------------|
---------------------------|---------------------------|

--0-------2---3-------2-3--|--2-------0----------------|
------0---0-------0---0----|--------------3------------|
----0---0---0---0---0---0--|------4---4----------------|
--2-----------2------------|----4---4---4--------------|
---------------------------|--2-----------2------------|
---------------------------|---------------------------|

--0------------------------|---------------------------|
------0---0-------0---0----|------0---0----------------|
----0---0---0---0---0---0--|----0---0---0--------------|
--2-----------2------------|--2-----------<>7---L---L--|
---------------------------|---------------------------|
---------------------------|---------------------------|

--7---5-------0--|-----------------|--7---5-------0--|-----------------|
------3---7---5--|-----------------|------3---7---5--|-----------------|
--5-------4------|-----------------|--5-------4------|-----------------|
-----------------|---<>12----------|-----------------|---<>12----------|
-----------------|<>3---------<>7--|-----------------|<>3---------<>7--|
-----------------|--------<>7------|-----------------|--------<>7------|

--7---5-------0--|--------------0--|--7---5-------0--|--------------0--|
------3---7---5--|--1---3---0------|------3---7---5--|--1---3---0------|
--5-------4------|-----------------|--5-------4------|-----------------|
-----------------|------0-------2--|-----------------|------0-------2--|
-----------------|--3-------2------|-----------------|--3-------2------|
-----------------|-----------------|-----------------|-----------------|

--3---2---------------------|
--0-------3---0-------------|
--0-------------------------|
----------------------------|
----------------------------|
--0-------------------------|

-------------|------------------|-------------|------------------|
-------------|------------------|-------------|----------0-------|
--1----------|--2---------------|--1----------|--2---------------|
--2----------|--2-------4-------|--2----------|--2---------------|
-------------|--0---------------|-------------|--0---------------|
--0----------|------------------|--0----------|------------------|

-------------|------------------|-------------|-------------|-------------|-------------|
-------------|------------------|----------1--|-------------|-------------|-------------|
--1----------|--2---------------|----------2--|--1-------2--|--1----------|-------------|
--2----------|--2-------4-------|-------------|--2-------2--|--2----------|-------------|
-------------|--0---------------|----------0--|----------0--|-------------|-------------|
--0----------|------------------|-------------|--0----------|--0-------4--|-------------|

----------------------------|----------------------------|
----------------------------|----------------------------|
--------1-----4-----1-------|--------1-----4-----1-------|
--222222222222222222222222--|--222222222222222222222222--|
--222222222222222222222222--|--222222222222222222222222--|
--000000000000000000000000--|--000000000000000000000000--|

----------------------------|----------------------------|------------------|
----------------------------|----------------------------|------------------|
--------1-----4-----1-------|--------1-----4-----1-------|------------------|
--222222222222222222222222--|--222222222222222222222222--|--2---------------|
--222222222222222222222222--|--222222222222222222222222--|--2---------------|
--000000000000000000000000--|--000000000000000000000000--|--0---------------|
Login or Register to remove this ad.