Ads

The Bannered Mare (The Elder Scrolls V: Skyrim) Guitar Tab

Submitted: Feb 04, 2012 by OggirtMoonfrad

5
Average: 5 (3 votes)
Download | Listen
Game: The Elder Scrolls V: Skyrim
Composer(s): Jeremy Soule
Style: Arrangement, Fingerstyle, Tapping, Trill
Series: The Elder Scrolls

AutoScroll: Slow | Medium | Fast
The Bannered Mare

     ^                    ^                    ^        ^         
     E.  S E  E.  S E     E.  S E  E.  S E     E.  S E  E.  S E   
E||--1-----0--1---3-1--|--0--------0---1-0--|--------------------|
B||--3---3-------------|--1---1-3-----------|--3--------3---5-3--|
G||--2-----------------|--0-----------------|--3---3-5--3--------|
D||--0-----------------|--2-----------------|--3--------0--------|
A||--------------------|--3-----------------|--1-----------------|
E||--------------------|--------------------|-----------3--------|


  ^                   ^                    ^                  
  E.  S E  Q    E     Q    S S E.  S E     Q    S S E.  S E   
-------------------|--1------0-1---3-1--|--0--------0---1-0--|
--2---3----2-------|--3----3------------|--1----1-3----------|
--2-----4-------2--|--2-----------------|--0-----------------|
--2----------------|--0-----------------|--2-----------------|
--0----------------|--------------------|--3-----------------|
-------------------|--------------------|--------------------|


  ^        ^           ^       ^         ^                  
  E.  S E  E.  S E     Q    E  Q.        Q    S S E.  S E   
--------------------|-------0---------|--5----1-3-5---6-5--|
--3---5-3--3---5-3--|--2-------3------|--1-----------------|
--3--------3--------|--2-------2------|--2-----------------|
--3--------0--------|--2-------0------|--------------------|
--1-----------------|--0--------------|--------------------|
-----------3--------|-----------------|--1-----------------|


  ^                     ^        ^           ^                       
  Q    S S E.  S S S    Q    S S Q    S S    T  T  E.   E   Q    E   
--3--------3---5-3-1-|--1------0-1----3-1-|--0--------------0-------|
--5----5-6-----------|--3----3---3--------|--2h-3p-2---(2)-------2--|
--5------------------|--2--------3--------|--2----------------------|
---------------------|--0-----------------|-------------------------|
--3------------------|-----------1--------|--0----------------------|
---------------------|--------------------|-------------------------|


  ^                      ^                      ^         ^           
  Q    S S E  S S S S    Q    S S E  S S S S    E  S S E  E  S S S S  
--5----1-3-5--6-5-3-1-|--3----0-1-3--5-3-1-0-|--1----0-1--1--3-1-0---|
--1-------------------|--5-------------------|--3--3------3--------3-|
--2-------------------|--5-------------------|--2---------3----------|
--3-------------------|----------------------|--0--------------------|
----------------------|--3-------------------|------------1----------|
----------------------|----------------------|-----------------------|


  ^            ^                                     >   >                      
  E  S S  E    Q.         S S S S S S S S S S S S    S S S S S S S S S S S  S   
--0-------0---(1)------|----------1-L---------1---|----------0-L---------0-----|
--1--1---(1)---3-------|----3---3-------3---3-----|----1---1-------1---1----1--|
--2----2-------2-------|--2---2-------2---2-0---2-|--0---0-------0---0-----(0)-|
--2------------0-------|--3-------2---3-------3---|----------0---2-----3-2-----|
--0--------------------|--------------------------|--------3-------------------|
-----------------------|--------------------------|----------------------------|


  >   >                      >      > >   >            
  S S S S S S S S S S S S    S S S  S S S S S S S S S  
--------------------------|---------------------------|
----------3-L---------3---|-----------3-L---------2---|
----3---3-------3---3---3-|----3----3-------2---2---2-|
--3---3-------3---3-2-0---|--0---0h-2-0---2---2-------|
--------1-3---5-----------|---------------4-------0-L-|
--------------------------|---------------------------|


                             >   >                      
  S S S S S S S S S S S S    S S S S S S S S S S S  S   
----------1-L---------5---|----------0-L---------3-----|
----3---3-------3---3-----|----1---1-------1---1----1--|
--2---2-------2---2-0---2-|--0---0-------0---0-----(0)-|
--3-------2---3-------3---|------------0-2-----3-2-----|
--------------------------|----------3-----------------|
--------------------------|----------------------------|


  >   >       >                        >   ^                                  
  S S S S S S S S S S  S S    S S S S  E   Q.        E  S S S  S  S S S S E   
---------------------------|---------------1------|--5------1-(3)-5-----6-5--|
----------3-L----------3-L-|---------------3------|-------------------1------|
----3---3-------3---3------|----2---2--2---2------|-------0-2-----2-3---2----|
--3---3-------3---3--------|--2---2--------0------|--3--3------3----------3--|
--------------5-----7p-5---|--5-------(4)---------|--------------------------|
---------------------------|----------------------|--------------------------|


  E  S S S S S S S S S  S     E  S S S S S S S S E   
--3--------1-3---5-3-1--0--|--1--------0-1-----3-1--|
-------3-5-1-----1---------|---------3--------------|
--5--5---------0---0-------|---------------0-2------|
-------------2---------(2)-|--0--0-2-3-0-3-----3-0--|
---------------------4--L--|------------------------|
---------------------------|------------------------|


  |--3--|                                                      
  T  T  T S S S S S  S  S S S S S    E  S S S  S  S S S S S S  
--0h-1p-0-------------------0-3---|--5------1-(3)-5---6-5-3-1-|
----------------3----1------------|---------------------------|
------------------0-----0---------|-------0-2-----2-3-5-2-----|
----------0-2---2---------2---0-2-|--3--3------3----------3---|
--3-----------3-----(3)-----3-----|---------------------------|
----------------------------------|---------------------------|


  E  S S S S S S S S S S    E  S S S S E  S S S S     Q     E   Q.       
--3------0-1-3---5-3-1-0-|--1----0-1--------0-1-3-|---0--------(1)------|
-------------------------|-----3----------3-------|--(1)-------(3)------|
---------0-------0-----2-|------------------------|------------(2)------|
--2--2-3---2---2---2-----|--0--0-2-3-0--------0---|-------------0-------|
-------------3-------3-L-|-------------1--1-3---1-|---0-----0-----------|
-------------------------|------------------------|---------------------|


  ^         ^                ^         ^              
  E  S S E  E  T  T  S E     E  S S E  T T  E.   S S  
---------0--1--0h-1p-0----|--0--0-1-3--1-3p-1p---0---|
-----2-3----3----------3--|------------3-----------3-|
--2---------2-------------|--2---------2-------------|
--2---------0-------------|--2---------0-------------|
--0-----------------------|--0-----------------------|
--------------------------|--------------------------|


  ^          ^                ^         ^        
                   |-3-|                         
  E  S S S S E  E  T T T S    E  E  S S Q    E   
-------0-1-0-0-----0-1-0---|----------0---------|
-----3----------3--------3-|-----3--3---3----2--|
--3----------0-------------|--0---------2-------|
--3----------0-------------|--0---------2-------|
--1------------------------|------------0-------|
-------------3-------------|--3-----------------|


  ^             ^                         ^            ^                 
  E   S  S  E   T T  S  S   T   T  E      E   E    E   S  S   S  S  E    
------------0---0-1p-0-----------------|------0--------0h-1p--0---------|
------2--3------3----------(5)p-3------|--3--------3---3---------3--3---|
--2--(2)---(2)--2------(2)--------(2)--|--2--(2)--(2)--2-----(2)---(2)--|
--2-------------0----------------------|--2------------0----------------|
--0------------------------------------|--0-----------------------------|
---------------------------------------|--------------------------------|


  ^                  ^           ^               ^                  
  E   S  S  S  T  T  E  E  E     E   S  S   S  S T  T  S  E    E    
------------------------------|----------------3-0h-1p-0-----------|
------3--5--6--5h-6p-5-----3--|------3h-5h--6----------------------|
--3--(3)---(3)-------3--3--3--|--0--(0)----(0)---2-------(2)--(2)--|
--3------------------3--------|--0---------------2-----------------|
--1------------------1--------|------------------0-----------------|
------------------------------|--3---------------------------------|


  ^                          ^                      
                             |--3--|                
  E  S  S E  S S  S S S S    T  T  T E.  E  Q.      
--3-------3--L-5p-3---3---|--1h-3p-1-0---1--0------|
--3--5h-6-----------6---6-|------------------------|
--3-----------------------|--2---------------------|
--2-----------------------|--2---------------------|
--------------------------|--0---------------------|
--------------------------|------------------------|


  ^                                   ^                  ^                  
                      |-3| |--3--|                                          
  E  S  S E  S S  S S T  S T  T  T    H         Q        E.  S E  E.  S E   
--3-------3--L-5p-3----------------|--9---------------|--1-----0--1---3-1--|
--3--5h-6-----------6-6p-5-6h-8p-6-|------------------|--3---3-------------|
--3--------------------------------|--9--------(9)----|--2-----------------|
--2--------------------------------|--7---------------|--0-----------------|
-----------------------------------|--0---------------|--------------------|
-----------------------------------|------------------|--------------------|


  ^                    ^        ^           ^                 
  E.  S E  E.  S E     E.  S E  E.  S E     E.  S E  Q    E   
--0--------0---1-0--|--------------------|-------------------|
--1---1-3-----------|--3--------3---5-3--|--2---3----2-------|
--0-----------------|--3---3-5--3--------|--2-----4-------2--|
--2-----------------|--3--------0--------|--2----------------|
--3-----------------|--1-----------------|--0----------------|
--------------------|-----------3--------|-------------------|


  ^                    ^                    ^        ^         
  Q    S S E.  S E     Q    S S E.  S E     E.  S E  E.  S E   
--1------0-1---3-1--|--0--------0---1-0--|--------------------|
--3----3------------|--1----1-3----------|--3---5-3--3---5-3--|
--2-----------------|--0-----------------|--3--------3--------|
--0-----------------|--2-----------------|--3--------0--------|
--------------------|--3-----------------|--1-----------------|
--------------------|--------------------|-----------3--------|


  ^       ^         ^                    ^                   
  Q    E  Q.        Q    S S E.  S E     Q    S S E.  S S S  
-------0---------|--5----1-3-5---6-5--|--3--------3---5-3-1-|
--2-------3------|--1-----------------|--5----5-6-----------|
--2-------2------|--2-----------------|--5------------------|
--2-------0------|--------------------|---------------------|
--0--------------|--------------------|--3------------------|
-----------------|--1-----------------|---------------------|


  ^        ^           ^                         ^                    
  Q    S S Q    S S    T  T  E.   E   Q    E     Q    S S E  S S S S  
--1------0-1----3-1-|--0--------------0-------|--5----1-3-5--6-5-3-1-|
--3----3---3--------|--2h-3p-2---(2)-------2--|--1-------------------|
--2--------3--------|--2----------------------|--2-------------------|
--0-----------------|-------------------------|--3-------------------|
-----------1--------|--0----------------------|----------------------|
--------------------|-------------------------|----------------------|


  ^                      ^         ^             ^            ^        
  Q    S S E  S S S S    E  S S E  E  S S S S    E  S S  E    Q.       
--3----0-1-3--5-3-1-0-|--1----0-1--1--3-1-0---|--0-------0---(1)------|
--5-------------------|--3--3------3--------3-|--1--1---(1)---3-------|
--5-------------------|--2---------3----------|--2----2-------2-------|
----------------------|--0--------------------|--2------------0-------|
--3-------------------|------------1----------|--0--------------------|
----------------------|-----------------------|-----------------------|


        ^               ^              
  Q     H               H.             
-------(1)--------|----13------------||
--3-----3---------|----10------------||
--------2---------|----10------------||
--------0---------|--<>12------------||
------------------|------------------||
------------------|------------------||




Duration Legend
---------------
W - whole
H - half
Q - quarter
E - 8th
S - 16th
T - 32nd
X - 64th
. - note dotted
|-n-|  - n-tuplets


Tablature Legend
----------------
L - tied note
x - dead note
g - grace note
(n) - ghost note
> - accentuded note
NH - natural harmonic
AH - artificial harmonic
TH - tapped harmonic
SH - semi harmonic
PH - pitch harmonic
h - hammer on
p - pull off
b - bend
br - bendRelease
pb - preBend
pbr - preBendRelease
brb - bendReleaseBend
\n/ - tremolo bar dip
\n - tremolo bar dive
-/n - tremolo bar Release up
/n\ - tremolo bar inverted dip
/n - tremolo bar return
-\n - tremolo bar Release down
S - shift slide
s - legato slide
/ -  slide into from below or out of upwards
\ -  slide into from above or out of downwards
~ - vibrato
W - wide vibrato
tr - trill
TP - tremolo picking
T - tapping
S - slap
P - pop
< - fade in
^ - brush up
v - brush down
Login or Register to remove this ad.

3 comments on The Bannered Mare

I should have made it clear

I should have made it clear in the tab;

Notes that dont seem possible to be played without letting go of the held chord in places are to be tapped with the right hand.

Awesome tab, but no matter

Awesome tab, but no matter how I try to turn it around playing 1xx215 and xx3215 is just impossible, and tapping sounds pretty bad. Great work on the rest though!

...

kool