Login or Register to remove this ad.

Ancient Stones (The Elder Scrolls V: Skyrim) Guitar Tab

Submitted: Feb 10, 2017 by Bhael (Last updated: Feb 10, 2017)

5
Average: 5 (2 votes)
Download | Listen
Game: The Elder Scrolls V: Skyrim
Composer(s): Jeremy Soule
Style: Alternate picking, Arrangement, Artificial harmonics, Fingerstyle, Natural harmonics
Series: The Elder Scrolls

Click here for a video example.

AutoScroll: Slow | Medium | Fast
                               Ancient Stones   
                         The Elder Scrolls V: Skyrim                               
                                Jeremy Soule



     E    E    E    E    E    E     E    E    E    E    E    E   
E||------------------------------|------------------------------|
B||---------------<>1------------|---------------<>1------------|
G||----------<>2-------<>2-------|----------<>0-------<>0-------|
D||-----<>2-----------------<>2--|-----<>2-----------------<>2--|
A||--0---------------------------|--3---------------------------|
E||------------------------------|------------------------------|


                                                                     NH  
  E    E    E    E    E    E     H.              E  E   E  E   E     E   
------------------------------|---------------|--8----------------------|
---------------<>1------------|---------------|-------------------------|
----------<>2-------<>2-------|---------------|------------9------------|
-----<>3-----------------<>3--|---------------|--------10-----10--------|
------------------------------|---------------|-----0-------------<>12--|
--1---------------------------|--1------------|-------------------------|


     NH              NH       ^                  NH            
     E  E   E  E     Q        H.                 H.            
--<>12------------<>12----|--13------------|------------------|
--------------------------|--10------------|------------------|
---------------9----------|----------------|------------------|
-----------10-------------|----------------|--<>19------------|
--------------------------|---8------------|----19------------|
--------8-----------------|----------------|------------------|


   E  E   E  E   E  E      E  E  E  E  E   E     E  E  E  E  E  S S   
----------8------------|---7-----7--8--7------|--------7-------------|
--10-----10-----10-----|--10-----8--------10--|--8-----------8----8h-|
------9------9------9--|------7---------------|-----9-----9-----9----|
-----------------------|----------------------|----------------------|
-----------------------|----------------------|----------------------|
-----------------------|----------------------|----------------------|


                                 NH                    
   E  E   E  E  E   E      E     E   E   E   E   S  S  
-------------7--8--10--|--12--------17------17-----19-|
--10-----10------------|------------------------------|
------9----------------|----------------17------17----|
-----------------------|------------------------------|
-----------------------|------<>19--------------------|
-----------------------|------------------------------|


     NH                                                      
                                          |--3--|     |-3-|  
     E   E   E   E   E   E      E  E   E  S  S  S E   S S S  
----17--15--15--12--15--12--|--10--------------10-L--10-8-7-|
----------------------------|---------12----10--------------|
--<>12----------------------|------9------9-----------------|
----------------------------|-------------------------------|
----------------------------|-------------------------------|
----------------------------|-------------------------------|


                                    ^          ^      ^             
   E  E  E  E   Q        Q    Q     E   E      E   E  E  E   E  E   
---------0-----------|--------8-----8------|---7------7---------7--|
--10-----------10----|--10---------10--10--|---0--10--0--8--10-----|
------9-----9--------|--------------9------|----------0------------|
---------------------|---------------------|-----------------------|
---------------------|---0-----------------|--10-------------------|
---------------------|---------------------|-----------------------|


                                                          ^             
  E  E  E  S S E  S  S     E  E   E  E  E   E      E  E   Q     E   E   
--------7------7--8p-7-|-------------7--8--10--|--12-----12----12--10--|
--8----------8---------|--10-----10------------|---------10------------|
-----9-----9-----------|------9----------------|----------9------------|
-----------------------|-----------------------|-----------------------|
-----------------------|-----------------------|------0----------------|
-----------------------|-----------------------|-----------------------|


   ^                                                                     
               |-3-|                                                     
   E  E  E  E  S S S  E     E  E  E  S S E  S  S     E  E  E  E   E  E   
--10--8--7--8--7-8-7-----|--------7------7--8p-7-|---------0---------0--|
---0-----------------10--|--8----------8---------|--10-----------10-----|
---0---------------------|-----9-----9-----------|------9-----9---------|
-------------------------|-----------------------|----------------------|
-------------------------|-----------------------|----------------------|
-------------------------|-----------------------|----------------------|


                                          ^              ^                  
                   |--3--|                                         |--3--|  
  E  E  E  E  S. T S  S  S    E  E  E  E  E  E     E  E  Q    S. T S  S  S  
--2-----------3----5p-3p-2-|--L-----2-----2--3--|--5-----5----7----8p-7p-5-|
--------3------------------|--------3-----3-----|--------5-----------------|
-----2-----2-----2---------|-----2-----2--2-----|-----5--5-------5---------|
--0------------------------|--------------0-----|--------------------------|
---------------------------|--------------------|--0-----------------------|
---------------------------|--------------------|--------------------------|


                                        |--3--|                       
  E  E  E  E  E  E     E  E  E  E  S. T S  S  S    E  E  E  E  E  E   
--L-----------5-----|--2-----------3----5p-3p-2-|--L-----------------|
--------5--------8--|--------3------------------|--------3-----------|
-----5-----5--------|-----2-----2-----2---------|-----2--------2-----|
--------------------|--0------------------------|-----------0-----0--|
--------------0-----|---------------------------|--------------------|
--------------------|---------------------------|--------------------|


                             ^      ^              ^                
                                                            |--3-|  
  E  E  E  E  E  E     E  E  E  S S E  E     E  E  E  E  E  S  S S  
--0-----------------|--0---------------0--|--2--------0------------|
--------------5--3--|--0-----1------3-----|--------3-----8--8-10-8-|
--------2-----------|--------2----2-2-----|-----2--2-----7---------|
-----2-----2--------|-----2---------------|--0-----0---------------|
--0-----------------|--0--------0---------|------------------------|
--------------------|---------------------|------------------------|


                        NH       ^  ^                       ^   ^  ^  ^  ^   
                                              |--3--|                        
   E   E   E  E   E     E     E  E  E  S S E  S  S  S    E  S S E  E  E  E   
--10-----------------------|--8----------8-7--7h-8p-7-|--5----5-5--5--5-----|
--10------10-----10--<>12--|-----5--5---------5-------|--5--5---5--5--5--8--|
------11---------11--------|-----5--5--5--------------|-----5---5--5-----5--|
---0----------0------------|--------------------------|---------------------|
---------------------------|--0-----------------------|---------------------|
---------------------------|--------------------------|---------------------|


        ^                                     NH                  ^     
                 |--3-|                                                 
  E  E  E  E  E  S  S S     E   E   E   E     Q       E  E  E  E  Q     
--2--------0------------|--10----------------------|--5-----------7----|
--------3-----8--8-10-8-|--10------10------<>12----|--------5-----5----|
-----2--2-----7---------|------11------11----11----|-----5-----5--5----|
--0-----0---------------|---0----------------------|-------------------|
------------------------|--------------------------|--0----------------|
------------------------|--------------------------|-------------------|


  ^     ^    ^      ^       ^                                
  Q     E    Q      E       H.               Q    Q    Q     
--8----(8)--(8)----(8)--|--(8)------------|--L----8----7----|
--0-----0----0------0---|---0-------------|--L--------------|
--0----------0----------|---0-------------|--L--------------|
------------------------|-----------------|-----------------|
------------------------|-----------------|-----------------|
------------------------|-----------------|-----------------|


                         ^                                           
   E  E   E  E   Q       E   E  E  E   E  E     E  E  E  E  E  S S   
----------8-----------|--7------7---------7--|--------7-------------|
--10-----10-----10----|--8--10-----8--10-----|--8-----------8----8h-|
------9------9--------|--9-------------------|-----9-----9-----9----|
----------------------|----------------------|----------------------|
----------------------|----------------------|----------------------|
----------------------|----------------------|----------------------|


   E  E   E  E  E   E     E  E   E  S S  E  S S     S S E   E  S S E  E   
-------------7--8------|-----0--------0-------7-|----------------0-------|
--10-----10--------10--|--------10------10------|--10---8--10---------0--|
------9----------------|--9---------9-------9---|-----9--------9---7-----|
-----------------------|------------------------|------------------------|
-----------------------|------------------------|------------------------|
-----------------------|------------------------|------------------------|


  E  E  E  S S S S S  S    H.              E  E  E  E  Q     
------------------------|---------------|--5-----8-----5----|
--------0------3-L-1p-0-|---------------|--5-----5-----5----|
--0----------0----------|--2------------|-----5-----5-------|
-----5-----5------------|--2------------|-------------------|
------------------------|---------------|--0----------------|
------------------------|---------------|-------------------|


                 NH                                                  
  E  E  E  E     E  E     E  E  E  E  E  E      E  E   E  E   E  E   
--7--------8--------5--|--------7-----------|-------------7---------|
--0-----------<>12-----|--8-----8-----8-----|--10-----10-----10-----|
--0-----0--------------|-----9-----9-----9--|------9-------------9--|
-----0-----------------|--------------------|-----------------------|
-----------------------|--------------------|---0-------------------|
-----------------------|--0-----------------|-----------------------|


                          ^                                           
  E  E   E  E   Q         E  E  E  E  E  E     E  E  E  S S  E  S  S  
--0------------------|--7g5--3--3-----3-----|---------------10--8p-7-|
--------10-----10----|----0--------5-----5--|--3-----0----0----------|
-----9------9--------|----0-----------------|-----------0------------|
---------------------|----------------------|------------------------|
--0------------------|----------------------|------------------------|
---------------------|----------------------|-----0------------------|


                                           NH          ^     ^         ^        
   E  E  E  E   E  E     E   E   E   E     E   E       Q     E    E    E   E    
---------0---------0--|-----------------------(0)--|--------(0)--(0)------(0)--|
--10-----------10-----|---------10-----------------|--10--------------10-------|
------9-----9---------|-----11------11-------------|--11--------------11-------|
----------------------|--0-------------------------|---------------------------|
----------------------|-----------------<>19-------|---------------------------|
----------------------|----------------------------|---------------------------|


                    NH          ^           NH                           NH    
  E   E   E   E     E   E       H           Q        Q      E     E      Q     
-----------------------(0)--|--------------------|--10----(10)--(10)----------|
---------10-----------------|--10----------------|---8------------------------|
-----11------11-------------|--11--------<>12----|----------------------------|
--0-------------------------|--------------------|--------------------<>19----|
-----------------<>19-------|--------------------|---0------------------------|
----------------------------|--------------------|----------------------------|


                                          NH                           NH    
  Q    Q     Q        Q      E     E      Q        Q      E     E      Q     
-------8----12----|--12----(12)--(12)----------|--10----(10)--(10)----------|
--8---------------|----------------------------|--10------------------------|
--9---------------|--11------------------------|--11----------------<>12----|
------------------|--------------------<>19----|----------------------------|
------------------|---0------------------------|----------------------------|
------------------|----------------------------|----------------------------|


                       NH      ^                                       NH    
   Q      E     E      Q       Q    Q     Q        Q      E     E      Q     
--10----(10)--(10)----------|-------8----12----|--12----(12)--(12)----------|
---8------------------------|--8---------------|----------------------------|
----------------------------|--9---------------|--11------------------------|
--------------------<>19----|------------------|--------------------<>19----|
---0------------------------|------------------|---0------------------------|
----------------------------|------------------|----------------------------|


                            ^                ^              
   H         Q        Q     Q       Q        H        Q     
--10--------12----|--13------------------|--12-------------|
--10--------------|--------10------------|--10--------8----|
--11--------------|--------10----<>12----|-----------------|
------------------|--10------------------|--10-------------|
------------------|----------------------|-----------------|
------------------|----------------------|-----------------|


                                                        NH    NH      NH    
   Q     E     Q      E       H          Q        E     E     Q       Q     
--10---------(10)---------|-------------12----|--13------------------------|
---8----(8)---(8)----(8)--|--(8)--------------|----------------------------|
--------------------------|-------------------|--------------------<>24----|
--10----------------------|-------------------|------------<>19------------|
--------------------------|-------------------|------<>12------------------|
--------------------------|-------------------|--13------------------------|


     NH    NH    NH      NH                             ^              
     E     E     Q       Q        Q     E   Q    E      H        Q     
--<>12------------------------|--10----10--10-------|--10-------------|
------------------------------|---8-----8---8----8--|---8--------6----|
----------------------<>12----|---------7---7----7--|---7-------------|
--------------<>12------------|---------------------|-----------------|
------------------------------|---------------------|-----------------|
--------<>12------------------|---8-----------------|-----------------|


  PM PM PM PM ^       PM PM PM PM           PM PM ^  PM ^     
  E  E  E  E  Q       E  E  E  E  E   E     E  E  E  E  Q     
--8-----------8----|--3-----------5s--6--|--6-----5----------|
--6-----------6----|--3--3--3--3---------|--------x-----6----|
-----7--7--7-------|-----0--0--0---------|-----5--5--5--5----|
--0--0--0--0-------|--2------------------|--3--3--3--3-------|
-------------------|---------------------|-------------------|
-------------------|---------------------|-------------------|


  PM  PM   PM      PM   PM     PM   PM PM PM PM  PM    PM PM ^  PM ^     
  E   E    E   E   E    E      Q    E  E  E  S   S     E  E  E  E  Q     
----------------------------|-------------------(3)-|--3----------------|
--6-------------------------|--6--------------------|--6-----6----------|
--5--(5)--(5)--5--(5)--(5)--|--5----5--5--5--5------|-----5--5--5--5----|
----------------------------|-----------------------|--------------5----|
----------------------------|--3--------------------|--3----------------|
--3-------------------------|-----------------------|-------------------|


  PM PM PM ^  PM PM    ^                 ^  PM    PM PM PM  
  E  E  E  E  E  E     Q    Q    Q       E  E  E  E  E  E   
--------------------|-----------------|--------------------|
--3--------3--------|--3----1----0----|--------1-----------|
--2--2--2--2--2--2--|--2--------------|--2-----------2-----|
--------------------|-----------------|--2--2-----2--2--2--|
--3-----------------|-----------------|--0-----------------|
--------------------|-----------------|--------------------|


  ^  PM PM             PM PM    PM PM      PM PM PM              
  E  E  E  E  E  E     E  E  E  E  Q       E  S  S  E  E  E  E   
--------------------|-------------------|-----------------------|
--0--------1--0-----|--------0----------|--------------0--1--3--|
--0--------------2--|--0-----------0----|--2--------2-----------|
--0--0--0-----------|--2--2-----2--2----|--2--2--2--------------|
--x-----------------|--2----------------|--0--------------------|
--3-----------------|-------------------|-----------------------|


       PM PM PM PM PM    PM PM PM PM PM PM    PM PM PM PM            
  Q    E  E  E  S  S     E  E  E  E  E  E     E  E  E  E    E  S  S  
--0----5-----5-----7--|--5--3--3--0--3--0--|------------------------|
-------5--5--5-----0--|--0--0--0--0--0--0--|--3-----0-----0g3--1p-0-|
-------5--5--5--0-----|--0-----------------|--0-----0--0------------|
----------------------|--------------------|--2--2------------------|
--0-------------------|--------------------|------------------------|
----------------------|--------------------|------------------------|


                                                     ^                  
  E  S  S  E  E  E  E     E  E  E  S  S  E  S  S     E  E  E  E  E  E   
-----------------------|-------------(0)------(0)-|-----------0--------|
-------(1)-------------|--------1-----------------|--3--1--3-----3--0--|
--2--------2--2--2--2--|--2--------------2--------|--0-----------------|
--2--2-----2--2--2--2--|--2--2-----2--------2-----|--0-----------------|
--0-----------0--------|--0-----------------------|--------------------|
-----------------------|--------------------------|--3-----------------|


  E  E  E  S  S  E  S  S     E  S  S  E  S  S  E  E     Q    E  S  S  E  E   
-------------(0)------(0)-|-------(0)------(0)-------|--0----0----(0)-0--0--|
--------0-----------------|--------------0-----1--3--|-------1--1-----1--1--|
--0-----0--------0--------|--2--0-----2--------------|-------2--2-----2--2--|
--------2--2--------2-----|--2-----------------------|-------2--------2-----|
-----2--------------------|--0-----------------------|--0-------------0-----|
--0-----------------------|--------------------------|----------------------|


  E  E  E  E  E  E     E  E  E  S  S  E  S  S    E  S  S  E  E  S  S  E   
--------------------|-------------(0)---------|-------(0)---------(0)----|
--3--1--0--1--0-----|--------0--------0-------|--------------------------|
--0--0--0--0--0--2--|--0-----0-----------2p-0-|--2--2-----2--2--2-----2--|
--0-----------------|--2--2-----2-------------|--2--2-----2--2--2-----2--|
--x-----------------|--2--2-----2-------------|--0-----------0-----------|
--3-----------------|--0----------------------|--------------------------|


  E  S  S      Q     E   E   E   S  S      Q     E   E   E   S  S   
-------(0)-|-----------------------(0)-|-----------------------(0)-|
-----------|--10----10--10--10---------|--10----10--10--10---------|
--2--2-----|--11----11--11--11--11-----|--11----11--11--11--11-----|
--2--2-----|---0-----0---0---0---0-----|---0-----0---0---0---0-----|
--0--------|---------------------------|---------------------------|
-----------|---------------------------|---------------------------|


     NH       NH              NH          ^                          
     E   S    S  E   E   S    S  E        Q      E    E    E    E    
--<>12-----<>12------------<>12-----|--<>12--------------------(0)--|
----10----------10--10----------10--|----10----(10)-----------------|
----11--11------11--11--11------11--|----11----------(9)------------|
-----0---0-------0---0---0-------0--|-----0---------------(0)-------|
------------------------------------|-------------------------------|
------------------------------------|-------------------------------|


    E    E    E    E     E    E       Q       E    E    E    E    
-------------(0)------------------|-------------------------(0)--|
--(10)-----------------(10)-------|---------(10)-----------------|
--------(9)-------(9)--------(9)--|---------------(9)------------|
----------------------------------|--(0)---------------(0)-------|
----------------------------------|------------------------------|
----------------------------------|------------------------------|


                                        ^                                     
   H        Q       E  E  E  E  Q       E  E  E  E  Q       E  E  E  E  Q     
------------0----|--5-----------5----|--7----------------|-------------------|
--10-------------|--------5----------|--0-----0-----8----|--8-----------8----|
-----------------|-----5-----5-------|--0--0-----0-------|--------9----------|
-----------------|-------------------|-------------------|-----9-----9-------|
-----------------|--0----------------|-------------------|--7----------------|
-----------------|-------------------|-------------------|-------------------|


                                            NH         NH                
   E   E  E   E  E   E      E   E  E   E    Q          E  E  E  E  Q     
-----------------0------|------------------------|-----------------3----|
--10--------------------|--10--------------10----|--<>12----------------|
----------9-------------|----------9------<>9----|--------------0-------|
------10-----10-----10--|------10-----10---------|-----------0----------|
---0--------------------|---0--------------------|----------------------|
------------------------|------------------------|--------3-------------|


                                          ^                 
  E  E  E  E  Q       E  E  E  E  Q       Q    E  E  E  E   
--3-----------3----|--5-----------0----|-------0-----------|
--------0----------|--------5----------|--7----------7-----|
-----0-----0-------|-----5-----5-------|--7-------7-----7--|
--2----------------|-------------------|--0----------------|
-------------------|--0----------------|-------------------|
-------------------|-------------------|-------------------|


                                                              ^                 
  E  E  E  E  E  E     E  E  E  E  Q       Q    E  E  Q       Q    E  E  E  E   
--5-----------0-----|-------------------|------------------|-------0-----------|
--------7-----------|--------3-----5----|-------3-----5----|--7----------7-----|
-----7-----7-----7--|-----5-----5-------|--5-------5-------|--7-------7-----7--|
--------------------|-------------------|------------------|--0----------------|
--------------------|--0----------------|--0---------------|-------------------|
--------------------|-------------------|------------------|-------------------|


  E  E  E  E  Q       H.             
--5-----------0----|--L------------||
--------7----------|---------------||
-----7-----7-------|---------------||
-------------------|---------------||
-------------------|---------------||
-------------------|---------------|| 
Login or Register to remove this ad.

1 comment on Ancient Stones

Wonderful! I've been waiting

5

Wonderful!

I've been waiting for this tab since you've posted the video and it doesn't disappoint!