Ads

Ancient Stones (The Elder Scrolls V: Skyrim) Guitar Tab

Submitted: Feb 01, 2012 by hslesperance (Last updated: Aug 10, 2012)

5
Average: 5 (3 votes)
Download | Listen
Game: The Elder Scrolls V: Skyrim
Composer(s): Jeremy Soule
Style: 2 or more instruments, Arrangement, Fingerstyle, Natural harmonics
Series: The Elder Scrolls

AutoScroll: Slow | Medium | Fast
Ancient Stones
The Elder Scrolls V: Skyrim
Composed by Jeremy Soule
Arranged by hslesperance
2/1/12

Guitar 1 - Standard Tuning
Guitar 2 - Drop D Tuning




Guitar 1

  H.         H.         H.         H.        +H.        +H.
|---------|----------|----------|----------|----------|--------|
|---------|----------|----------|----------|----------|--------|
|---------|----------|----------|--4-------|-(4)------|-(4)----|
|---------|-^1-------|-^2-------|-(2)------|-(2)------|-(2)----|
|-2-------|-^2-------|-^2-------|-(2)------|-(2)------|-(2)----|
|-4-------|-^2-------|-^0-------|-(0)------|-(0)------|-(0)----|


  H.         H.         H.         H.        +H.        +H.
|---------|----------|----------|--7-------|-(7)------|-(7)----|
|---------|----------|----------|--9-------|-(9)------|-(9)----|
|---------|----------|----------|--9-------|-(9)------|-(9)----|
|---------|-^1-------|-^9-------|-(9)------|-(9)------|-(9)----|
|-2-------|-^2-------|-^7-------|-(7)------|-(7)------|-(7)----|
|-4-------|-^2-------|-^0-------|-(0)------|-(0)------|-(0)----|


  Q   Q  Q     E E Q  E E   Q   Q   E E   E E E E E E
|------------|------------|-------------|--------------|
|------------|------------|-------------|-----------2--|
|-1---4--1---|-3-1----1-3-|-----3---4-3-|-1-3-4-1-4----|
|------------|-----4------|-4-----------|--------------|
|------------|------------|-------------|--------------|
|------------|------------|-------------|--------------|


  Q   Q  E.   S   E E E E E E   Q   Q  E.   T T   E  E H
|-----4--4----6p|=4---4-------|-----------------|-----------|
|-4-------------|---7---4-7---|-----------------|-----------|
|---------------|-----------6-|-6---3-------4-3-|-----------|
|---------------|-------------|--------6--------|-6--4-6----|
|---------------|-------------|-----------------|-----------|
|---------------|-------------|-----------------|-----------|


  Q   Q   Q    E  E E E E E   Q   Q   Q    E  E E E E E
|------------|--------------|------------|---------------|
|------------|--------------|------------|---------------|
|-1---4---1--|-3--1-3-4-3-1-|-----3------|-1----1-3-4-1--|
|------------|--------------|-4-------4--|----4----------|
|------------|--------------|------------|---------------|
|------------|--------------|------------|---------------|


  Q    Q   E.  S   E   E  E  E  E E   Q   Q   E S S   H     Q
|------4---4---6p|=4----------------|---------------|----------|
|-4--------------|-----4--7-------4-|---------------|----------|
|----------------|-----------4--6---|-6---3---6-4-3-|----------|
|----------------|------------------|---------------|-6-----6--|
|----------------|------------------|---------------|----------|
|----------------|------------------|---------------|----------|


  Q   Q   E.   T T   H       E E   Q   Q   E S S   H       E E
|------------------|-------------|---------6-7p6-|-------------|
|-6---6---7----9p7p|=6-------6-7-|-9---9---------|-9-------9-7-|
|------------------|-------------|---------------|-------------|
|------------------|-------------|---------------|-------------|
|------------------|-------------|---------------|-------------|
|------------------|-------------|---------------|-------------|


  Q   Q   E.   T T   Q   Q   Q     H       E E   H       E E
|------------------|-------------|-------------|-------------|
|-6---6---7----9p7p|=6-----------|-------------|-------------|
|------------------|-----6-------|-8-------8-6-|-8-------8-6-|
|------------------|---------6---|-------------|-------------|
|------------------|-------------|-------------|-------------|
|------------------|-------------|-------------|-------------|


  Q   Q   E.   T T   H       E E   Q   Q   E S S   H       E E
|------------------|-------------|---------6-7p6-|-------------|
|-6---6---7----9p7p|=6-------6-7-|-9---9---------|-9-------9-7-|
|------------------|-------------|---------------|-------------|
|------------------|-------------|---------------|-------------|
|------------------|-------------|---------------|-------------|
|------------------|-------------|---------------|-------------|


  Q   Q   E.   T T   H       E E   Q   Q  Q     H.         +H.
|------------------|-------------|--------6--|-^7-------|-^(7)----|
|-6---6---7----9p7p|=6-------6-7-|-9---9-----|-^9-------|-^(9)----|
|------------------|-------------|-----------|-^8-------|-^(8)----|
|------------------|-------------|-----------|----------|---------|
|------------------|-------------|-----------|----------|---------|
|------------------|-------------|-----------|----------|---------|


   Q   Q  Q     E  E Q  E E    Q   Q  E E    E  E E E E E
|------------|--------------|-------------|----------------|
|------------|--------------|-------------|-------------2--|
|--1---4--1--|--3--1----1-3-|------3--4-3-|--1--3-4-1-4----|
|------------|-------4------|--4----------|----------------|
|------------|--------------|-------------|----------------|
|------------|--------------|-------------|----------------|


  Q       Q   E. S   E  E E E E E   Q   Q  E. T T   E  E H
|---------4---4--6p|=4----4-------|---------------|-----------|
|-4----------------|----7---4-7---|---------------|-----------|
|------------------|------------6-|-6---3-----4-3-|-----------|
|------------------|--------------|--------6------|-6--4-6----|
|------------------|--------------|---------------|-----------|
|------------------|--------------|---------------|-----------|


  Q   Q   Q    E  E E E E E   Q   Q   Q    E  E E E E E
|------------|--------------|------------|---------------|
|------------|--------------|------------|---------------|
|-1---4---4--|-3--1---1-3---|-----3---3--|-1----1-3-4-1--|
|------------|------4-----4-|-4----------|----4----------|
|------------|--------------|------------|---------------|
|------------|--------------|------------|---------------|


  Q    Q   E.  S   E  E E E E E   Q   Q   E S S   H      Q
|------4---4---6p|=4------------|---------------|-----------|
|-4--------------|----4-7-----4-|---------------|-----------|
|----------------|--------4-6---|-6---3---6-4-3-|-----------|
|----------------|--------------|---------------|-6------4--|
|----------------|--------------|---------------|-----------|
|----------------|--------------|---------------|-----------|


   H.        +Q   Q  Q     H.         H     Q
|----------|------------|----------|------------|
|----------|---------4--|----------|------------|
|--6-------|-(6)--4-----|----------|--6---------|
|----------|------------|--6-------|--------4---|
|----------|------------|----------|------------|
|----------|------------|----------|------------|


   H.        +Q   Q  Q     H     Q     H     Q
|----------|------------|-----------|------------|
|----------|---------4--|-----------|------------|
|--6-------|-(6)--4-----|--------6--|--6-----6---|
|----------|------------|--6--------|------------|
|----------|------------|-----------|------------|
|----------|------------|-----------|------------|


  H      Q    H     Q    H.          +H     Q
|-----------|----------|-----------|------------|
|-5------7--|-4--------|-----------|------------|
|-----------|----------|-6---------|-(6)----6---|
|-----------|-------4--|-----------|------------|
|-----------|----------|-----------|------------|
|-----------|----------|-----------|------------|


   H     Q    H     Q     H.        +H     Q
|-----------|----------|----------|------------|
|--5-----7--|-4--------|----------|------------|
|-----------|-------4--|--6-------|-(6)----6---|
|-----------|----------|----------|------------|
|-----------|----------|----------|------------|
|-----------|----------|----------|------------|


   H.         H.         Q   H       H.
|--7-------|----------|-----------|--------|
|----------|--7-------|-10---9----|--------|
|----------|----------|-----------|--9-----|
|----------|----------|-----------|--------|
|----------|----------|-----------|--------|
|----------|----------|-----------|--------|


   H.         H.         H.        +H.
|----------|----------|----------|-------------|
|----------|----------|----------|-------------|
|----------|----------|--6-------|-(6)---------|
|--9-------|----------|----------|-------------|
|----------|--9-------|----------|-------------|
|----------|----------|----------|-------------|


   W             W             E   E   Q    E   E     E   E   Q   E E
|-------------|-------------|---------(6)----------|---------(7)-------|
|-------------|-------------|----------------------|-------------------|
|-------------|-------------|-----(4)------(4)-----|-----(4)-----------|
|-------------|-------------|-(6)--------------(6)-|-(6)----------6-6--|
|-------------|-------------|----------------------|-------------------|
|-------------|-------------|----------------------|-------------------|


  Q   Q  Q     E E E E E E   Q   Q  a E E   E E E E E E
|------------|-------------|--------------|-------------|
|------------|-------------|--------------|-----------2-|
|-----4--1---|-3-1---1-3---|-----3--4p3-1-|-1-3-4-1-4---|
|-6----------|-----4-----4-|-4------------|-------------|
|------------|-------------|--------------|-------------|
|------------|-------------|--------------|-------------|


  Q  Q   E.   S   E E E E E E   Q  Q   E E   Q   H
|----4---4----6p|=4-----------|------------|----------|
|-4-------------|---7-7-4-7-4-|------------|----------|
|---------------|-------------|-6--6---4-3-|----------|
|---------------|-------------|------------|-6---6----|
|---------------|-------------|------------|----------|
|---------------|-------------|------------|----------|


  Q   Q   Q     E E E E E E   Q   Q   Q     E E E E E E
|-------------|-------------|-------------|--------------|
|-------------|-------------|-------------|--------------|
|-1---4---1---|-3-1---1-3---|-----3-------|-1---1-3-4-1--|
|-------------|-----4-----4-|-4-------4---|---4----------|
|-------------|-------------|-------------|--------------|
|-------------|-------------|-------------|--------------|


  Q   Q  E.   S   E E E E E E   Q   Q  a E E   H.
|---------------|-------------|--------------|-------|
|-----4--4----4p|=2-------2-4-|--------------|-------|
|-4-------------|---4-3-4-----|-3---3--3h4-3-|-1-----|
|---------------|-------------|--------------|-------|
|---------------|-------------|--------------|-------|
|---------------|-------------|--------------|-------|


   H.          H    Q    H.          H.
|------------|---------|-----------|-------|
|------------|---------|-----------|-------|
|------------|-6-------|-4---------|-3-----|
|--6---------|------6--|-----------|-------|
|------------|---------|-----------|-------|
|------------|---------|-----------|-------|


   H.          H    Q    H.          +H.
|------------|---------|-----------|--------|
|------------|---------|-----------|--------|
|------------|-6-------|-4---------|-(4)----|
|--6---------|------6--|-----------|--------|
|------------|---------|-----------|--------|
|------------|---------|-----------|--------|


  H.        H.         +H.        +H.
|---------|---------|-----------|--------|
|---------|---------|-----------|--------|
|---------|-1-------|--(1)------|-(1)----|
|-3-------|---------|-----------|--------|
|---------|---------|-----------|--------|
|---------|---------|-----------|--------|


  W          W          W          W          W
|---------|----------|----------|----------|--------|
|---------|----------|----------|----------|--------|
|---------|----------|----------|----------|--------|
|---------|----------|----------|----------|--------|
|---------|----------|----------|----------|--------|
|---------|----------|----------|----------|--------|


   H.         H.         H.         +H.
|----------|----------|----------|---------|
|-11-------|----------|----------|---------|
|----------|-11-------|-13-------|-(13)----|
|----------|----------|----------|---------|
|----------|----------|----------|---------|
|----------|----------|----------|---------|


   H.         H.          H.         +H.
|----------|----------|-----------|---------|
|-11-------|----------|-----------|---------|
|----------|-11-------|--13-------|-(13)----|
|----------|-13-------|-(13)------|-(13)----|
|----------|----------|-----------|---------|
|----------|----------|-----------|---------|


   H.         H.         H.         +H.
|----------|----------|----------|---------|
|-11-------|----------|----------|---------|
|----------|-11-------|-13-------|-(13)----|
|-11-------|--9-------|----------|---------|
|----------|----------|-11-------|-(11)----|
|----------|----------|----------|---------|


   H.         H.         H.          H.
|----------|----------|----------|---------*|
|-11-------|----------|----------|-<12>----*|
|----------|-11-------|-13-------|-(13)----*|
|----------|----------|----------|---------*|
|----------|----------|----------|---------*|
|----------|----------|----------|---------*|




Guitar 2

  W          W          W          W          W          W
|---------|----------|----------|----------|----------|--------|
|---------|----------|----------|----------|----------|--------|
|---------|----------|----------|----------|----------|--------|
|---------|----------|----------|----------|----------|--------|
|---------|----------|----------|----------|----------|--------|
|---------|----------|----------|----------|----------|--------|


  W          W          W          W          W          W
|---------|----------|----------|----------|----------|--------|
|---------|----------|----------|----------|----------|--------|
|---------|----------|----------|----------|----------|--------|
|---------|----------|----------|----------|----------|--------|
|---------|----------|----------|----------|----------|--------|
|---------|----------|----------|----------|----------|--------|


  E E Q  E E   E E Q  E E   E E E E E E   E E H
|------------|------------|-------------|--------------|
|-----4--5-4-|-----4------|-------------|--------------|
|---4--------|---3----4---|-----3---3---|-----4--------|
|-6----------|-4--------4-|---4---4---4-|---6----------|
|------------|------------|-6-----------|-6------------|
|------------|------------|-------------|--------------|


  E E Q  E  E     E E E E E E   E E Q  E  E       H.
|---------------|-----2-------|-----------------|-----------|
|-----4---------|-4-----4-----|-----4-----------|-4---------|
|---4----4------|---3-----3---|-----3--4--3-----|-4---------|
|-6---------6---|-4---------4-|---4-------------|-6---------|
|---------------|-------------|-6---------------|-6---------|
|---------------|-------------|-----------------|-----------|


  Q.    E Q    Q.     E Q     Q.    E Q    Q.     E Q
|------------|--------------|------------|---------------|
|------------|--------------|------------|---------------|
|------------|--------------|------------|---------------|
|------------|--------------|------------|---------------|
|------------|--------------|------------|---------------|
|-6-----6-6--|-4------4-4---|-1-----1-1--|-6------6-6----|


  E  E E E E E     E   E  E +E  Q     Q   Q   Q       H.
|------4---------|------------------|---------------|----------|
|----------5p4---|-7--(7)-----------|---------------|----------|
|----4---4-------|--------4-(4)-3---|-1-------3-----|----------|
|-6--------------|--------4-(4)-----|-----1---------|-6--------|
|----------------|-----6------------|---------------|-6--------|
|-6------6-6-----|-4---------4--4---|-1-----1-1-----|-6--------|
  Q.     E Q       Q.        E  Q     Q.    E Q       H.



  E E E E E  E       E E E E E E   E E E E E E     E E E E E E
|------------------|-------------|---------------|-------------|
|------------------|-------------|---------7-----|---------6---|
|---------6--------|---------6---|-------8---8---|-------6---6-|
|-----3-6----6-----|-----3-6---6-|-----9---------|-----6-------|
|---4--------------|---4---------|---9-----------|---9---------|
|-6----------------|-6-----------|-9-------------|-9-----------|


  E E E E E  E       E E E E E E   E E E E E E   E E E E E E
|------------------|-------------|-------------|-------------|
|-6-------6--------|-----6-------|-------------|-------------|
|---6---6----6-----|---6---6---6-|-8-------8---|-8-------8---|
|-----6------------|-6-------6---|---6---6---6-|---6---6---6-|
|------------------|-------------|-----6-------|-----6-------|
|------------------|-------------|-------------|-------------|


  E E E E E  E       E E E E E E   E E E E E E     E E E E E E
|------------------|-------------|---------------|-------------|
|------------------|-------------|---------7-----|---------6---|
|---------6--------|---------6---|-------8---8---|-------6---6-|
|-----3-6----6-----|-----3-6---6-|-----9---------|-----6-------|
|---4--------------|---4---------|---9-----------|---9---------|
|-6----------------|-6-----------|-9-------------|-9-----------|


  E E E E E  E       E E E E E E   E E Q  Q     H.         +H.
|------------------|-------------|-----------|----------|---------|
|------------4-----|-6-4---------|-----------|----------|---------|
|---------6--------|-----6-------|-----------|--4-------|--(4)----|
|-----3-6----------|-------6-3---|-----3--4--|--6-------|--(6)----|
|---4--------------|-----------6-|-4-4-------|--6-------|--(6)----|
|-6----------------|-------------|-----------|----------|---------|


   H.           H.             H.            H.
|------------|--------------|-------------|----------------|
|-^4---------|-^2-----------|-------------|----------------|
|-^4---------|-^3-----------|-^3----------|-^4-------------|
|-^6---------|-^4-----------|-^4----------|-^6-------------|
|------------|--------------|-^6----------|-^6-------------|
|------------|--------------|-------------|----------------|


  Q   a   Q   Q      H        Q     Q   Q  Q        H.
|-------------4----|-6------------|-----7--6------|-4---------|
|-4---6h==7--------|-7--------7---|-7-------------|-4---------|
|-4--(4)-(4)-------|-6------------|---------------|-4---------|
|-6--(6)-(6)-------|--------------|---------------|-6---------|
|------------------|--------------|-6-------------|-----------|
|------------------|--------------|---------------|-----------|
                     H.             H.              H.



  Q.    E Q    Q.     E Q     Q.    E Q    Q.     E Q
|------------|--------------|------------|---------------|
|------------|--------------|------------|---------------|
|------------|--------------|------------|---------------|
|------------|--------------|------------|---------------|
|------------|--------------|------------|---------------|
|-6-----6-6--|-4------4-4---|-1-----1-1--|-6------6-6----|


  E  E E E E E     E  E E E E E   Q   Q   Q       H.
|------4---------|--------------|---------------|-----------|
|----------5p4---|------------4-|---------------|-----------|
|----4---4-------|-6--4-3-4-6---|-6-------3-----|-----------|
|-6--------------|--------------|-4---1---------|-6---------|
|----------------|--------------|---------------|-6---------|
|-6------6-6-----|-4------4-4---|-1-----1-1-----|-6----6-6--|
  Q.     E Q       Q.     E Q     Q.    E Q       Q.   E Q


   ~~~~~~~~~~~~~~~~~~~~~~~~~~~~~~~~~~~~~~
   H.         H.           H.         H.
|--9-------|--7---------|--9-------|--9---------|
|--9-------|--9---------|--9-------|-11---------|
|-10-------|--8---------|-10-------|-11---------|
|----------|------------|----------|------------|
|----------|------------|----------|------------|
|----------|------------|----------|------------|

   ~~~~~~~~~~~~~~~~~~~~~~~~~~~~~~~~~~~~~~~
   H.         H.           H.          H.
|--9-------|--7---------|--9--------|--9---------|
|--9-------|--9---------|--9--------|-11---------|
|-10-------|--8---------|-10--------|-11---------|
|----------|------------|-----------|------------|
|----------|------------|-----------|------------|
|----------|------------|-----------|------------|


  H.          H.         H.           H.
|-----------|----------|-0---------|--0---------|
|-----------|----------|-0---------|--2---------|
|-4---------|-4--------|-----------|------------|
|-4---------|-4--------|-4---------|--4---------|
|-----2--2--|----------|-----2--2--|------------|
|-----------|----------|-----------|------------|
  Q   Q  Q    W          Q   Q  Q     W



   H.         H.          H.         H.
|-----------|----------|-^0-------|-^0---------|
|-----------|----------|-^0-------|-^0---------|
|-^4--------|-4--------|----------|------------|
|-^4--------|-4--------|-^4-------|-^4---------|
|-----------|----------|-^2-------|------------|
|-^4--------|----------|----------|--------4---|
              W                      H     Q

   H.         H.         H.          H.
|-^0-------|-^2-------|-^2--------|-^0-----|
|-^0-------|-^4-------|-^5--------|-^2-----|
|----------|-^4-------|-^4--------|-^2-----|
|-^4-------|----------|-----------|--------|
|-^4-------|----------|-----------|--------|
|----------|-^2-------|-----------|--------|
                         W

   H.         H.         H.        +H.
|-^0-------|-(0)------|-^0-------|-(0)---------|
|-^0-------|-(0)------|-^0-------|-(0)---------|
|----------|----------|----------|-------------|
|-^4-------|-(4)------|-^4-------|-(4)---------|
|-^2-------|-(2)------|-^2-------|-(2)--(2)----|
|----------|----------|----------|-------------|
                                    Q    H

   H.            H.            H.                     H.
|-------------|-------------|----------------------|-------------------|
|-------------|-------------|----------------------|-------------------|
|--3----------|--4----------|--3-------------------|--4----------------|
|--4----------|--4----------|--4-------------------|--4----------------|
|-(2)--(2)----|-(2)--(2)----|-(2)-----(2)----------|-(2)-----(2)-------|
|-------------|-------------|----------------------|-------------------|
   Q    H        Q    H        Q       H              Q       H



  E E Q  E E   E E H         E E Q    Q     E E H
|-----4------|-------------|--------------|-------------|
|------------|-----7-------|--------------|-----4-------|
|---4----4---|---4---------|-----3--------|---4---------|
|-6--------6-|-4-----------|---4------4---|-6-----------|
|------------|-------------|-6------------|-------------|
|------------|-------------|--------------|-------------|


  Q  E E E  E     Q   E E E E   Q  E E E E   E E H
|----4----------|-------------|------------|----------|
|-4----4--------|-4-----------|------------|----------|
|-4------4------|-3-------3---|-3------3---|-----4----|
|-6---------6---|-4-----4---4-|-4----4---4-|---6------|
|---------------|-----6-------|-6--6-------|-6--------|
|---------------|-------------|------------|----------|


  Q   Q   Q     Q   Q   Q     Q   Q   E E   E E E E E E
|-------------|-------------|-------------|--------------|
|-----4-------|-----2-------|-------------|---------4----|
|-4---4---4---|-3---3---3---|---------4-3-|-----4-----4--|
|-6-------6---|-4-------4---|-4---4-------|---6---6------|
|-------------|-------------|-6---6-------|-6------------|
|---6---6---6-|---4---4---4-|---1---1-----|--------------|
  E Q   Q   E   E Q   Q   E   E Q   Q   E



  E E Q  E  E     E E H         E E Q    Q     H.
|---------------|-------------|--------------|-------|
|-----4---------|-----2-------|--------------|-------|
|---4----4------|---3---------|-----3--------|-4-----|
|-6---------6---|-4-----------|---4------4---|-6-----|
|---------------|-------------|-6------------|-6-----|
|---------------|-------------|--------------|-------|


   E  E H      W         E  E H      W
|-------9----|---------|------7----|-------|
|-----9------|---------|----9------|-------|
|-10---------|---------|-8---------|-------|
|------------|---------|-----------|-------|
|------------|---------|-----------|-------|
|------------|---------|-----------|-------|


   E  E H      W         E  E H       W
|-------9----|---------|-----------|--------|
|-----9------|---------|------9----|--------|
|-10---------|---------|----8------|--------|
|------------|---------|-6---------|--------|
|------------|---------|-----------|--------|
|------------|---------|-----------|--------|


  W         W           H.         W
|---------|---------|-----------|--------|
|---------|---------|-<12>------|--------|
|---------|---------|-----------|--------|
|---------|---------|-----------|--------|
|---------|---------|-----------|--------|
|---------|---------|-----------|--------|


  Q  H       H.         H.         H.        +H.
|---------|----------|----------|----------|--------|
|---------|----------|----------|----------|--------|
|----4----|-^3-------|----------|----------|--------|
|----6----|-^4-------|-^4-------|-^6-------|-(6)----|
|----6----|-^6-------|-^4-------|-^6-------|-(6)----|
|---------|----------|-^8-------|-^6-------|-(6)----|


   H.         H.         H.         +H.
|----------|----------|----------|---------|
|----------|----------|----------|---------|
|-^3-------|----------|----------|---------|
|-^4-------|-^4-------|-^6-------|--(6)----|
|-^6-------|-^4-------|-^6-------|--(6)----|
|----------|-^8-------|-^6-------|--(6)----|


   H.         H.         H.         +H.
|----------|----------|----------|---------|
|----------|----------|----------|---------|
|-^3-------|----------|----------|---------|
|-^4-------|-^4-------|-^6-------|--(6)----|
|-^6-------|-^4-------|-^6-------|--(6)----|
|----------|-^8-------|-^6-------|--(6)----|


   H.         H.         H.         +H.
|----------|----------|----------|---------|
|----------|----------|----------|---------|
|-^3-------|----------|----------|---------|
|-^4-------|-^4-------|-^6-------|--(6)----|
|-^6-------|-^4-------|-^6-------|--(6)----|
|----------|-^8-------|-^6-------|--(6)----|


   H.         H.         H.         +H.
|----------|----------|----------|---------*|
|----------|----------|----------|---------*|
|-^3-------|----------|----------|---------*|
|-^4-------|-^4-------|-^6-------|--(6)----*|
|-^6-------|-^4-------|-^6-------|--(6)----*|
|----------|-^8-------|-^6-------|--(6)----*|

h - hammer on
p - pull off
^ - upstroke
~ - vibrato
< n > - natural harmonic

W - whole
H - half
Q - quarter
E - 8th
S - 16th
T - 32nd
a - acciaccatura
+ - note tied to previous
. - note dotted

Low melody durations appear below the staff
Login or Register to remove this ad.

3 comments on Ancient Stones

HOLY LONG SONG! Excellent

HOLY LONG SONG! Excellent work! I look forward to playing this.

Thanks, but this is nothing

Thanks, but this is nothing compared to the song I will post either tonight or tomorrow or my twilight princess credits tab

Oh nice. I look forward to

Oh nice. I look forward to that one.