Auriel's Ascension (The Elder Scrolls IV: Oblivion) Guitar Tab

Submitted: Apr 12, 2016 by IkuinenOnni (Last updated: Apr 12, 2016)

5
Average: 5 (5 votes)
Download | Listen
Game: The Elder Scrolls IV: Oblivion
Composer(s): Jeremy Soule
Style: Arrangement, Fingerstyle

Click here for a video example.

AutoScroll: Slow | Medium | Fast
Auriel's Ascension
The Elder Scrolls IV: Oblivion
Composed by Jeremy Soule
Arranged by IkuinenOnni


Steel Guitar
     W                   W                   W                 
E||--0----------------|-------------------|--0----------------|
B||--0----------------|-------------------|--0----------------|
G||--0----------------|--0----------------|-------------------|
D||--2----------------|--2----------------|--4----------------|
A||--2----------------|--3----------------|--0----------------|
E||--0----------------|--3----------------|-------------------|


  W                   W                   W                   W                 
--0----------------|-------------------|-------------------|--0----------------|
--0----------------|--0----------------|--1----------------|-------------------|
-------------------|--0----------------|--2----------------|-------------------|
--2----------------|--2----------------|-------------------|--4----------------|
--2----------------|--2----------------|--3----------------|--0----------------|
-------------------|--0----------------|--3----------------|-------------------|


  W                   Q    E  E  Q    E  E     Q    E  E  Q    Q     
-------------------|--0----3--2--0----------|--0----0--7--0---------|
--0----------------|------------------3--0--|-----------------------|
-------------------|-------------0----2-----|--0--------------------|
--2----------------|--2----4----------------|-------4-----2----0----|
-------------------|------------------------|-----------------------|
--0----------------|------------------------|-----------------------|


  Q    E  E  Q    E  E     Q    E  E  Q    Q       Q    E  E  Q    E  E   
--0----3--2--0----------|--0----0--3------------|------------------------|
------------------3--0--|-------------0---------|------------------------|
------------------------|-----------------------|-------0----------------|
------------------------|------------------0----|--2-------4--2----0-----|
--3----2-----0----------|--0----2-----3---------|------------------0--2--|
------------------3-----|-----------------------|--0----2-----3----------|


  Q    E  E  Q    Q       Q    E  E  Q    E  E     Q    Q    Q    Q     
-----------------------|------------------------|----------------------|
----------0------------|---------------------0--|----------------------|
-----------------------|-------0----------------|----------------------|
--2----2-----2----0----|--2-------4--2----2-----|--2----0----2----0----|
-----------------------|--3----2-----0----2-----|--3-------------------|
--3----2-----0---------|------------------------|----------------------|


  Q    H        E  E     Q    E  Q.     Q       Q    Q    Q    E  E   
----------------------|-----------------0----|--0----2----3----5-----|
----------------------|-----------------0----|--0----3----3----3--5--|
-------------------0--|--L----2--------------|-------4----4----------|
--2----4--------0-----|----------2------2----|-----------------------|
----------------------|----------------------|-----------------------|
--0-------------------|--0-------------------|-----------------------|


  Q    E  E  Q    Q       Q.     E  Q    Q       Q    E  E  Q    Q     
-------------0---------|-----------------0----|--0-------0------------|
--0----0-----0----0----|--0------0--0----5----|--0----0---------------|
-----------------------|----------------------|-----------------------|
--2----2--2------------|--4------4--6---------|--4----------2----4----|
----------2--0----0----|---------4--4----4----|--2----2---------------|
--0--------------------|--2-------------------|-----------------------|


  Q.     E  Q    Q       Q    E  E  Q    Q       Q.     E  Q    Q     
------------0----0----|--0----------0---------|---------7--7----0----|
--0------0-------5----|------------------0----|--0------0--0---------|
----------------------|-----------------------|----------------------|
--4------4--6---------|----------4-------4----|--6--------------6----|
---------4--4----4----|--2----2-----2---------|--4-------------------|
--2-------------------|--0----------0---------|------------0---------|


  Q    E  E  E  Q.        Q.     E  Q    Q       E  E  E  E  Q    E  E   
--0----0--2------------|----------------------|-------------------------|
-----------------------|----------------------|-------------------2-----|
-----------------------|--0-------------------|-------------------------|
-------2-----2--4------|---------2--4----0----|--------------2----2--4--|
--2-------3------------|--3---------2----2----|--0-----0--4-------------|
--0--------------------|---------3------------|-----0-------------------|


  Q    E  E  Q    Q       H        H           Q    E  E  Q    E  E   
-----------------------|--------------------|--0----3--2--0----------|
-----------------------|--------------------|------------------3--0--|
--0--------------------|--------------------|------------------------|
----------2--4----0----|--2-----------------|--2----2-----2----0-----|
--3----3-----2----2----|--2--------3--------|----------2----------0--|
----------3------------|--0--------0--------|--0---------------0-----|


  Q    E  E  Q    Q       Q    E  E  Q    E  E     Q    E  E  Q    Q     
--0----0--7--0---------|--0----3--2--0----------|--0----0--3--7---------|
----------0-------3----|--1----0----------3--0--|-------0----------3----|
-----------------------|-------------2----0-----|--2----------5---------|
--2----2-----2----0----|------------------------|-----------------------|
-----------------------|--3----3-----3----3-----|--2----2----------2----|
--3--------------------|------------------------|-----------------------|


  Q    E  E  Q    E  E     Q    E  E  Q    Q       Q    E  E  Q    E  E   
------------------------|-----------------------|------------------------|
------------------------|----------0------------|--0---------------------|
-------0----------------|------------------2----|-------0----------------|
--2----2--4--2----0-----|--2----2-----2---------|--2-------4--2----0-----|
----------2----------2--|--0--------------------|--3----3-----3----3--2--|
--0----------0----0-----|-----------------------|----------3----------3--|


  E  E  E  E  E  E  E  E     Q    E  E  Q    E  E     Q    Q    Q    Q     
--------------------------|------------------------|----------------------|
--0--0--------------------|------------------------|----------------------|
--------------------------|-------0----------------|----------------------|
--2-----0-----2-----4-----|--2----2--4--2----0-----|--2----0----2----4----|
--2--------2-----2-----2--|--2----3--5-------0--2--|--2----0----2----2----|
--------------------------|---------------------0--|----------------------|


  W                  
-------------------||
-------------------||
-------------------||
--2----------------||
--2----------------||
--0----------------||




Duration Legend
---------------
W - whole
H - half
Q - quarter
E - 8th
S - 16th
T - 32nd
X - 64th
. - note dotted
|-n-|  - n-tuplets


Tablature Legend
----------------
L - tied note
x - dead note
g - grace note
(n) - ghost note
> - accentuded note
NH - natural harmonic
AH - artificial harmonic
TH - tapped harmonic
SH - semi harmonic
PH - pitch harmonic
h - hammer on
p - pull off
b - bend
br - bendRelease
pb - preBend
pbr - preBendRelease
brb - bendReleaseBend
\n/ - tremolo bar dip
\n - tremolo bar dive
-/n - tremolo bar Release up
/n\ - tremolo bar inverted dip
/n - tremolo bar return
-\n - tremolo bar Release down
S - shift slide
s - legato slide
/ -  slide into from below or out of upwards
\ -  slide into from above or out of downwards
~ - vibrato
W - wide vibrato
tr - trill
TP - tremolo picking
T - tapping
S - slap
P - pop
< - fade in
^ - brush up
v - brush down
Login or Register to remove this ad.