Ads

Main Theme (The Elder Scrolls III: Morrowind) Guitar Tab

Submitted: Jun 01, 2009 by Stamen47 (Last updated: Feb 04, 2010)

5
Average: 5 (6 votes)
Download | Listen
Game: The Elder Scrolls III: Morrowind
Composer(s): Jeremy Soule
Style: Arrangement, Fingerstyle

AutoScroll: Slow | Medium | Fast
                             Theme from Morrowind                               

Music by Jeremy Soule
Tab by Stamen47

     H        E  E     H         E  E     H         E  E   
E||-----------------|------------------|---------------3--|
B||-----------------|---------------3--|--5~--------5-----|
G||-----------2--4--|--5~--------5-----|------------------|
D||-----------------|------------------|------------------|
A||-----------------|------------------|------------------|
E||-----------------|------------------|------------------|


  Q.      S  S E  E     H         E  E     E  E  Q    E  E   
---------------------|------------------|-------------------|
--3~------5p-3-------|------------------|--1----------1--3--|
---------------5--4--|--2~--------2--4--|--2--2--2----------|
---------------------|------------------|-------------------|
---------------------|------------------|-------------------|
---------------------|------------------|-------------------|


  E  E  Q    E  E     E  E  Q    E  E     E  E  Q    E.  S     Q    Q    Q     
--0----------0--3--|--5-------------7--|--5----------5---7-|---8----7----5----|
--1--1--1----------|--6--6--6----8-----|-------------------|--10----8----6----|
-------------------|-------------------|--7--7--7----------|------------------|
-------------------|-------------------|-------------------|------------------|
-------------------|-------------------|-------------------|------------------|
-------------------|-------------------|-------------------|------------------|


  Q    Q    Q       Q    Q.     E     H        E  E     E  E  E  E  E  E   
--3----1----0----|-----------------|-----------------|--------------------|
--5----3----1----|--3-----------5--|--3--------------|-----------3--------|
-----------------|-------5---------|--4--------5--4--|--2-----2-----2-----|
-----------------|--3--------------|-----------------|--0--2-----------2--|
-----------------|-----------------|-----------------|--0-----------------|
-----------------|-----------------|--3--------------|--------------------|


  E  E  E  E  E  E     E  E  E  E  E  E     E  E  E  E  E  E   
--0-----------------|--------------------|--0-----------0--3--|
-----3-----------0--|--1-----------1--3--|-----1-----1--------|
--------2-----2-----|-----2-----2--------|--------0-----------|
-----------2--------|--------2-----------|-----------------2--|
--------------------|--0-----------0--2--|--3-----------3-----|
--------------------|--------------------|--------------------|


  E  E  E  S S E  E     E  E  E  E  E  E     E  E  E  E  E  E   
-----------0---------|--------------------|--------------------|
--3----------3-1--0--|-----------------0--|--1-----------1--3--|
-----0---------------|--2-----------2-----|--4-----2-----------|
--------0------------|-----3-----3--------|-----2-----2--------|
---------------0-----|--------3-----------|--0-----------0--2--|
--3---------------3--|--1-----------1--3--|--------------------|


                                            ^                    
                                                        |--3-|   
  E  E  E  E  E  E     E  E  E  E  E  E     E  E  E  E  Q    E   
--0-----------0--3--|--5--------------7--|--5-----------5----7--|
--3-----1-----------|--------6-----8-----|--6-----6-------------|
-----0-----0--------|-----5-----5--------|--7--7-----7----------|
-----------------2--|--3-----------------|--0-------------------|
--3-----------3-----|--------------7-----|----------------------|
--------------------|--------------------|----------------------|


  |--3--|  |--3--|  |--3--|     |--3--|  |--3--|  |--3--|   
  E  E  E  E  E  E  E  E  E     E  E  E  E  E  E  E  E  E   
--8--------7--------5--------|--3--------1--------0--------|
-----5-----------------------|-----------------------------|
--------5-----5--------2-----|-----0-----0-----------------|
-----------------7--------2--|--------2-----2-----2--------|
--0--------------------------|--3--------------3-----3-----|
-----------------------------|--------------------------3--|


  ^                                                      
  |--3--|  |--3--|  |--3--|     |--3--|  |--3--|         
  E  E  E  E  E  E  E  E  E     E  E  E  E  E  E  E  E   
--------------------------0--|--------------------------|
--3--------1-----------------|--3-----------------1--0--|
--2-----------2--------------|--------0--------0--------|
--3-----3--------3-----2-----|-----0--------0-----0-----|
-----------------------------|-----------2--------------|
--1--1--------------1--------|--3-----------------------|


  |--3--|  |--3--|  |--3--|  |--3--|   
  E  E  E  E  E  E  E  E  E  E  E  E   
--------------------0--------3--------|
-----------0-----3-----3--------0-----|
--2-----2-----2-----------2--------2--|
-----2--------------------------------|
--0-----------------------------------|
--------------------------------------|


  |--3--|   |--3--|   |---3---|  |--3-|   
  E  E  E   E  E  E   E   E   E  Q    E   
--7--------10--------12------------------|
-----8---------7---------10--------------|
--------9---------7----------12--7----9--|
-----------------------------------------|
--0--------------------------------------|
-----------------------------------------|


                          NH                                                   
   |----3---|   |----3----|   |---3--|      |----3---|  |---3---|   |---3--|   
   E   E    E   E   E     E   E   E  E      E   E    E  E   E   E   E   E  E   
----------------------------------------|---------------8------------------8--|
---------------10--------------------8--|--10p--8h--10-----10------10p--8-----|
--10p--9h--10------10--------10---------|----------------------10-------------|
---0-------------------<>12------10-----|-------------------------------------|
----------------------------------------|---8---------------------------------|
----------------------------------------|-------------------------------------|


  |---3--|   |---3--|  |---3--|     |---3--|  |---3--|  |--3--|   
  E   E  E   E   E  E  E   E  E     E  E   E  E   E  E  E  E  E   
---------------------------------|-------------------------------|
--8p--6--8--10p--8--6--5h--6--5--|--3----------------------------|
-------------0---------5---------|-----7p--5--3p--0--------------|
---------------------------------|------------0------------0-----|
---------------------------------|-------------------8--------7--|
--8------------------------------|----------------------6--------|


  |---3---|  |--3--|  |--3--|     |---3---|  |--3--|  |---3--|   
  E   E   E  E  E  E  E  E  E     E   E   E  E  E  E  E   E  E   
-------------------------------|--------------------------------|
-------------------------------|-------------1---------------1--|
-------------2--------------0--|--2p--0h--2-----2-----2p--0-----|
--3p--2h--3--3--3-----3--------|-------------3-----3------------|
--5----------------5-----3-----|--3-------------------3---------|
----------------------5--------|--1-----------------------------|


  |-3| |3|  |-3| |3|  |-3| |3|     |-3| |3|  |-3| |3|  |-3| |3|   |-3-|  |--|   
  E  S S E  E  S S E  E  S S E     E  S S E  E  S S E  E  S S E   E   S  S  E   
------------1----------------0--|------------3---------6---------10--------12--|
--3--1---3-----3------1---------|--3------------------------3-6------11--------|
-------------------3-----0------|-----2-0-----------0-----5-------------12-----|
-------3----0----3---------2----|---------3-----2-3----0-----------------------|
--1-------------------0---------|------------1-------------------10------------|
--------------------------------|--3-------------------------------------------|


   |---3--|   |---3--|   |---3---|      |--3--|   |--3--|  |--3-|   
   Q      E   Q      E   Q       E      Q     E   Q     E  Q    E   
--13-----13--12-----12--10------10--|--10----10---8-----8--5----5--|
--10-----10--10-----10--13------13--|--11----11--10----10--6----6--|
--10-----10--12-----12--12------12--|--10----10--10----10--5----5--|
---0-------------------------0------|---8--------------------------|
------------------------------------|-------------8--------3-------|
------------------------------------|------------------------------|


                                      |--3--|  |--3--|         
  Q    Q    Q       H        E  E     E  E  E  E  E  E  E  E   
--5----3----2----|--2--------------|--------------------------|
--5----5----5----|--4--------------|--------------------------|
--5----5----5----|--2--------------|--0-----0-----0-----0--2--|
-----------------|-----------2--4--|--------------------------|
--0---------0----|--2--------------|-----5-----4-----2--------|
-----------------|-----------------|--0-----------------------|


  |--3--|  |--3--|           |--3--|  |-3| |--3-|        
  E  E  E  E  E  E  E  E     E  E  E  E  S S S  S E  E   
--------------------------|--0-----0-----0-----------2--|
--0-----0-----0-----0--3--|-----0----------0------3-----|
--------------------------|-----------2------2p-0-------|
-----4-----2-----0--------|-----------------------------|
--------------------------|--3--------------------------|
--3-----------------------|-----------------------------|


  |--3--|  |--3--|           |-3| |3|  |-3| |3|  |-3| |3|   
  E  E  E  E  E  E  E  E     E  S S E  E  S S E  E  S S E   
--0-----0-----0-----0--2--|--3---------2---------0---------|
--0--------------3--------|---------0---------0---------0--|
-----0--------------------|-------0---------0---------0----|
-----------4--------------|-----0--------------------------|
--0-----------------------|---------------4---------2------|
--------------------------|--0-----------------------------|


                                                         ^     
  |-3| |3|  |-3| |3|  |-3| |3|     |-3|  |3|  |-3|  |3|        
  E  S S E  E  S S E  E  S S E     E  S  S E  E  S  S E  Q     
--------------------------------|-----------------------------|
--3-------------------0---------|-----------------------------|
------------5------------2------|--2----------0----------2----|
---------4---------5-------4----|----------2----------0--2----|
-------5---------6-----------2--|--3--2h-3----2--0h-2----3----|
-----3---------5----------------|------------------------1----|


   |---3---|        |---3--|        |-3-|        |--3--|       |--3--|        
   S   S   S  Q     S   S  S  Q     S S S  E     S  S  S E  E  S  S  S E  E   
--13p-12p-10------------------------0---------|------------------------------|
-------------13----13p-10---------------------|------------------------------|
--------------------------12S-9~------7-------|----------0-------------------|
----------------------------------------7h-8--|--7h-8p-7----3--2h-3p-2-0-----|
----------------------------------------------|---------------------------3--|
----------------------------------------------|------------------------------|


  ^      ^         ^              
  Q.     Q.        H.             
----------------|--0------------||
----------------|--0------------||
--2------0------|--2------------||
--0------0------|--4------------||
--1------3------|--5------------||
--1------3------|--5------------||




Duration Legend
---------------
W - whole
H - half
Q - quarter
E - 8th
S - 16th
T - 32nd
X - 64th
. - note dotted
|-n-|  - n-tuplets


Tablature Legend
----------------
L - tied note
x - dead note
g - grace note
(n) - ghost note
> - accentuded note
NH - natural harmonic
AH - artificial harmonic
TH - tapped harmonic
SH - semi harmonic
PH - pitch harmonic
h - hammer on
p - pull off
b - bend
br - bendRelease
pb - preBend
pbr - preBendRelease
brb - bendReleaseBend
\n/ - tremolo bar dip
\n - tremolo bar dive
-/n - tremolo bar Release up
/n\ - tremolo bar inverted dip
/n - tremolo bar return
-\n - tremolo bar Release down
S - shift slide
s - legato slide
/ -  slide into from below or out of upwards
\ -  slide into from above or out of downwards
~ - vibrato
W - wide vibrato
tr - trill
TP - tremolo picking
T - tapping
S - slap
P - pop
< - fade in
^ - brush up
v - brush down
Login or Register to remove this ad.

3 comments on Main Theme

Edit

I just edited this quite a bit.

Good job, stamen. I like this

5

Good job, stamen. I like this more than both of my versions.

Genius work.

5

Genius work.