Ads

Call of Magic (The Elder Scrolls III: Morrowind) Guitar Tab

Submitted: Jun 19, 2014 by Matatiahu (Last updated: Jul 17, 2014)

5
Average: 5 (7 votes)
Download | Listen
Game: The Elder Scrolls III: Morrowind
Composer(s): Jeremy Soule
Style: Arrangement, Fingerstyle

This song is also called Main Theme, Nerevar Rising

Click here for a video example.

AutoScroll: Slow | Medium | Fast
                                The Elder Scrolls III: Morrowind
                                          Call of Magic
                                          Jeremy Soule



Capo on the first fret


E||--------------------|------------------0--|--2------------2--5--|--0---------2-0------
B||-----------------2--|--3------------3-----|---------3-----------|----------------3-2--
G||--------------4-----|---------4-----------|-----2-2----2--------|---------2-----------
D||--------------------|-----4-4----4--------|--0------------------|-----2-2-------------
A||--------------------|--2------------------|---------------------|--0------------------
E||--------------------|---------------------|---------------------|---------------------

---------------3--2--|------------------0--|--2------------2--5--|--7------------5--9--
--0------------------|--3------------3-----|---------3-----------|---------------------
---------0-----------|---------4-----------|-----2-2----2--------|---------0-----------
-----0-0----0--------|-----4-4----4--------|--0------------------|-----0-0----0--------
---------------------|--2------------------|---------------------|---------------------
--3------------------|---------------------|---------------------|--3------------------

--7------------7--9--|--10-----9------7---|--5-----------------|--0---------------2--
---------0-----------|--------------------|---------8------7---|---------------3-----
---------------------|--------------------|--------------------|---------0-----------
---------------------|--------------------|-----7-7-7--7-7-7--7|------------0--------
-----7-7----7--------|-----9-9-9--9-9-9--9|--5-----------------|-----2-2-------------
--0------------------|--7-----------------|--------------------|--3------------------

--0------------------|--------0-----------|--------------------
---------------3--2--|--0-----------------|--------------0--2--
---------2-----------|--------------------|--------------------
-----2-2----2--------|--------2-----------|--------2-----------
--0------------------|-----2-----2-----2--|-----2-----2--------
---------------------|--0-----------0-----|--0-----------------

-----------------0--|--2-----2-----2--5--|--0-----0--2-0------
--3-----3-----3-----|--3-----3-----3-----|--2-----2------3-2--
--0-----0-----0-----|--------------------|--------------------
-----0-----0--------|-----4-----4--------|-----2--------------
--------------------|--2-----------------|--0-----------------
--3-----------------|--------------------|--------------------

--------------------|-----------------0--|--2-----2-----2--5--|--7-----7-----5--9--
--0-----0-----0--2--|--3-----3-----3-----|--3-----3-----3-----|--0-----0-----0-----
--0-----1-----0-----|--4-----4-----4-----|-----2-----2--------|--------------------
--------------------|-----4-----4--------|--0-----------------|-----0-----0--------
-----2-----2--------|--2-----------------|--------------------|--------------------
--0-----0-----------|--------------------|--------------------|--3-----------------

--7-----7-----7--9--|--10----9-----7-----|--5-----------------|--0--------------2--
--0-----0-----0-----|--7-----------------|--7-----8-----7-----|--0-----------3-----
--------------------|--------------------|--------------------|--------------------
--------------------|--------------------|--------------------|--------------------
-----7-----7--------|--------------------|--5-----------------|--------------------
--0-----------------|--7-----------------|--------------------|--3-----------------

--0-----------------|--------0-----------|--------------------|--------------------
--2-----------3--2--|--0-----------------|--------------3--2--|--0-----------0--0--
--------------------|--0-----------------|--------------------|--------0-----------
--------------------|--------2-----------|--------2-----------|-----0-----0--------
--0-----------------|-----2-----2--------|-----2-----2--------|--------------------
--------------------|--0-----------0--0--|--0-----------------|--3-----------------

--------------------|--------------------------|--------------------0--2--
--2-----0-----------|--0-----------------------|--0--------------0--------
--------------2-----|--------------0-----0-----|--------------0-----------
-----2-----2--------|-----------4-----4-----4--|-----------4--------------
--0-----------------|--2-----2-----------------|--2-----2-----------------
--------------------|-----2--------------------|-----2--------------------

--3-----------3--5--|--7-----------7--10-|--5--------7-5-3-2--|--0-----------------
--0-----------------|--0-----------------|--3-----3-----------|--1-----------3--1--
--------------------|--------0-----------|-----2--------------|--------0-----------
--------2-----------|-----0-----0--------|--0-----------------|-----2-----2--------
-----2-----2--------|--------------------|--------------------|--3-----------------
--0-----------------|--3-----------------|--------------------|--------------------

--------------------|--------------------|--0--------------2--|--0-----------0--2--
--0-----------------|-----------------3--|--1-----------3-----|--2-----------------
--0-----------0--2--|--4-----------4-----|--------0-----------|--------2-----------
--------2-----------|--5-----5-----------|-----2-----2--------|-----2-----2--------
-----2-----2--------|-----5-----5--------|--3-----------------|--0-----------------
--0-----------------|--3-----------------|--------------------|--------------------

--3-----2-----0-----|--------------------|--------------------|--------0-----------
--0-----------------|--3--------1--0-----|-----------------0--|-----3-----3--------
--------------------|--0-----------------|--2-----------0-----|--2-----------0-----
-----------2--------|--------0-----------|--2-----------------|--0--------------4--
-----2-----------2--|-----2--------------|--------------------|--------------------
--0-----------------|--3-----------------|--------------------|--------------------

--------------------|
--------------------|
--------------------|
--2-----------------|
--2-----------------|
--0-----------------|
Login or Register to remove this ad.

2 comments on Call of Magic

Awesome!

5

Brilliant arrangement :]

Thanks mate! I appreciate

Thanks mate! I appreciate that ;)