Ads

Call of Magic (The Elder Scrolls III: Morrowind) Ukulele Tab

Submitted: Jun 14, 2012 by Aleph

4
Average: 4 (1 vote)
Download | Listen
Game: The Elder Scrolls III: Morrowind
Composer(s): Jeremy Soule
Style: Arrangement, Transcription

This song is also called Nerevar Rising

AutoScroll: Slow | Medium | Fast
Call of Magic
Morrowind
Tabbed by Aleph for ukulele
6/14/12

A|------------------------------------------------------|
E|-----0--1----1--3--5----5--8--------------------------|
C|--2---------------------------7---9--7--5--4--2-------|
G|------------------------------------------------------|

A|--------------------------------------7---------------|
E|-----0--1----1--3--5----5--8--10---8-----10-----------|
C|--2---------------------------------------------------|
G|------------------------------------------------------|

A|------7--8---7--5--3--1--0----------------------------|
E|--10-----10--------0--------3--1--3--5--3----1--0-----|
C|---------9---------0--------0----------------------2--|
G|------------------------------------------------------|
Login or Register to remove this ad.