Call of Magic (The Elder Scrolls III: Morrowind) Guitar Tab

Submitted: Sep 03, 2011 by Bhael (Last updated: Mar 26, 2014)

5
Average: 5 (6 votes)
Download | Listen
Game: The Elder Scrolls III: Morrowind
Composer(s): Jeremy Soule
Style: Arrangement, Fingerstyle

Click here for a video example.

AutoScroll: Slow | Medium | Fast
                                Call of Magic    
                       The Elder Scrolls III: Morrowind                               
                                Jeremy Soule


Arranged by Harry Murrell

     H        E  E       E  E  E  E  E  E     E  E  E  E  E  E   
E||-----------------||------------------1--|-----------------6--|
B||-----------1--3--||---4-----------4-----|--8-----------8-----|
G||-----------------||*--------0-----------|-----0-----0--------|
D||-----------------||*-----1-----1--------|--------8-----------|
A||-----------------||---3-----------------|--6-----------------|
E||-----------------||---------------------|--------------------|

1st Ending                                     2nd Ending
  E  E  E  S S E  E     E  E  E  E  E  E       E  E  E  E  E.   S  
--1--------3-1-------|---------------------||--8-----------6---10-|
---------------4--3--|---------------------||---------------------|
--------3------------|--5-----------5--7--*||---------------------|
-----3---------------|--------6-----------*||--------6------------|
--1------------------|-----6-----6---------||-----6-----6---------|
---------------------|--4------------------||--4------------------|


  E   E  E   E  E.   S     E  E   E  E  E  E     E  E  E  E  E  E   
--8-------------8---10-|--11-----10-----8-----|--6-----------------|
---------9-------------|----------------------|--------9-----8-----|
-----10-----10---------|------8------8-----8--|--------------------|
-----------------------|----------------------|-----8-----8-----8--|
--8--------------------|----------------------|--6-----------------|
-----------------------|---8------------------|--------------------|


  E  E  E  E  E  E     E  E  E  E  E  E     E  E  E  E  E  E   
--1--------------3--|--1-----------------|--------------------|
--------------4-----|--------------4--3--|--1-----------------|
--------3-----------|--------3-----------|--------0--0--------|
-----3-----3--------|-----3-----3--------|-----1--------1-----|
--1-----------------|--1-----------------|--3--------------3--|
--------------------|--------------------|--------------------|


  ^                                                               
  E  E  E  E  E  E       E  E  E  E  E  E     E  E  E  E  E   E   
--------------0--2--||---3-----------3--5--|--7-----------7--10--|
--1-----------------||---------0-----------|---------------------|
--0--0--------------||*-----0-----0--------|--------0------------|
--2-----2-----------||*--------------------|-----0-----0---------|
--3--------3--------||---------------------|---------------------|
--------------------||---0-----------------|--3------------------|
1st Ending                                   2nd Ending

  E  E  E  S S E  E     E  E  E  E  E  E        E  E  E  E   E.   S  
--5--------7-5-------|--0-----------0--2---||--12-----------10---14-|
--------7------8--7--|--------1------------||---------8-------------|
-----7---------------|-----0-----0--------*||------9-----9----------|
--0------------------|--------------------*||-----------------------|
---------------------|--3------------------||-----------------------|
---------------------|---------------------||---8-------------------|


   E  E   E  E   E.   S     E  E   E  E   E  E      E  E  E  E  E  E   
--12------------12---14-|--15-----14-----12-----|--10-----8-----7-----|
---------10-------------|-----------------------|---------------------|
------9------9----------|------0------0------0--|---------------------|
------------------------|-----------------------|------0-----0-----0--|
---0--------------------|-----------------------|---------------------|
------------------------|---0-------------------|---3-----------------|


  ^                                                            
  E  E  E  E  E  E     E  E  E  E  E  E     E  E  E  E  E  E   
--5--------------7--|--5-----------3--2--|--0-----------------|
--------7-----8-----|--------3-----------|--------------------|
-----7-----7--------|-----2-----2--------|-----------0--------|
--0-----------------|--0-----------------|--------2-----2-----|
--------------------|--------------------|-----2-----------2--|
--------------------|--------------------|--0-----------------|


                         ^                    ^                  
  E  E  E  E  E  E       E  E  E  E  E  E     E  E  E  E  E  E   
-----------------0--||---1-----------1--3--|--5-----------5--8--|
--0-----------3-----||---3-----3-----------|--6-----6-----------|
-----0--------------||*--2--2-----2--------|--5--5-----5--------|
--------2-----------||*--0-----------------|--3-----------------|
-----------2--------||---------------------|--------------------|
--------------------||---------------------|--------------------|


 1st Ending                                    ^2nd Ending                   
  E  E  E  S S E  E     E  E  E  E  E  E        E  E  E  E  E.   S  
--3--------5-3-------|---------------------||--10-----------8---12-|
---------------6--5--|--3-----3-----3--0---||---6-----6------------|
--------5------------|--5-----4-----------*||---7--7-----7---------|
-----5---------------|--------------5-----*||----------------------|
--3------------------|-----5-----5---------||----------------------|
---------------------|--3------------------||---6------------------|


                                                        ^                  
   E   E   E   E   E.   S     E   E   E   E   E   E     E  E  E  E  E  E   
--10--------------10---12-|--13------12------10------|--8-----6-----5-----|
--------------------------|--------------------------|--6-----------------|
----------12--------------|------10------10------10--|--5--5-----5-----5--|
------12------12----------|---0----------------------|--3-----------------|
--10----------------------|--------------------------|--------------------|
--------------------------|--------------------------|--------------------|


  E  E  E  E  E  E     E  E  E  E  E  E     E  E  E  E  E  E   
--3--------------5--|--3-----------1--0--|--------------------|
--------------6-----|--------------------|--3-----------------|
--------5-----------|--------5-----------|-----------0--------|
-----5-----5--------|-----5-----5--------|--------0-----0-----|
--3-----------------|--3-----------------|-----1-----------1--|
--------------------|--------------------|--3-----------------|


                                            ^              
  E  E  E  E  E  E     E  E  E  E  E  E     H.             
--------------1--0--|-----------3--------|--2------------||
--------------------|--3-----3-----3-----|--3------------||
--3--0--------------|-----2-----------2--|--2------------||
--------0-----------|--0-----------------|--0------------||
-----------1--------|--------------------|---------------||
--------------------|--------------------|---------------||




Duration Legend
---------------
W - whole
H - half
Q - quarter
E - 8th
S - 16th
T - 32nd
X - 64th
. - note dotted
|-n-|  - n-tuplets


Tablature Legend
----------------
L - tied note
x - dead note
g - grace note
(n) - ghost note
> - accentuded note
NH - natural harmonic
AH - artificial harmonic
TH - tapped harmonic
SH - semi harmonic
PH - pitch harmonic
h - hammer on
p - pull off
b - bend
br - bendRelease
pb - preBend
pbr - preBendRelease
brb - bendReleaseBend
\n/ - tremolo bar dip
\n - tremolo bar dive
-/n - tremolo bar Release up
/n\ - tremolo bar inverted dip
/n - tremolo bar return
-\n - tremolo bar Release down
S - shift slide
s - legato slide
/ -  slide into from below or out of upwards
\ -  slide into from above or out of downwards
~ - vibrato
W - wide vibrato
tr - trill
TP - tremolo picking
T - tapping
S - slap
P - pop
< - fade in
^ - brush up
v - brush down
Login or Register to remove this ad.

7 comments on Call of Magic

I was just about to arrange

I was just about to arrange this! But I guess you got the job done pretty well!

nice !

5

I usually play the great Kenor version of this tune but yours is a nice alternative, except my left hand can't find a way to play it :

|--10-----8-----7-----|
|---------------------|
|---------------------|
|------0-----0-----0--|
|---------------------|
|---3-----------------|

If you can't reach it, you

If you can't reach it, you can move the 3 an octave up and play it as a 10 on the A string. You can probably reach it, though! Don't just fan out your fingers. Tilt your hand to the left, and raise your index finger up a bit, like you're flagging a taxi.

Here's another way to think about it: You can reach pretty far by turning your hand sideways and fretting with the left side of your index finger. The problem with that is, your index finger will mute the 4th string! So you need to move your elbow out, to get a better angle. You can move your arm back to a normal position after the chord :-)

Alternatively you can hit the

Alternatively you can hit the octave on an open G string, though the tone won't be as good as the A string. However, if you can't make the stretch I strongly recommend using an inversion by replacing the G with a D and the D with a G ;).

I bend the hand over the neck

I bend the hand over the neck like in kabukis "file select", using the thumb for the 3rd fret and the pinky for the 10th

your tabs keep getting harder and harder, but also they're sounding more and more awesome :D love it

Thanks for your encouragement

Thanks for your encouragement :). The increased difficulty isn't intentional, but as my skill increases I'm finding more ways to express music on guitar. Thankfully the music I like tends to be slow, so the difficulty is limited to the left hand!

Ty everybody for yr advices I

Ty everybody for yr advices I tried different stuff & finally I play it as bar chord, for infos it s :

  X                   -]
--10----------------------|
----------13------12------|
--------------------------|
-----------------------0--|
--10----------------------|
------10------10----------|

Now I can play all the nice tune -(^_^)-