Ads

Premonition (予感) (El Shaddai: Ascension of the Metatron) Guitar Tab

Submitted: Nov 05, 2022 by amb1t (Last updated: Nov 06, 2022)

0
Download | Listen
Game: El Shaddai: Ascension of the Metatron
Style: Tapping

AutoScroll: Slow | Medium | Fast
Title: Premonition (予感)
Artist: DESIGN WAVE
Composer: Masato Kouda

Baritone tuning (B E A D F# B)

 B|------------------------------|---------------------------------|------------------------------|
F#|------------------------------|---------------------------------|------------------------------|
 D|---------15-------15------15--|---------------------------------|---------15-------15------15--|
 A|-14--14-------14------14------|-14--11--11--11--12--12--13--13--|-14--14-------14------14------|
 E|------------------------------|---------------------------------|------------------------------|
 B|------------------------------|---------------------------------|------------------------------|

    tapping           tapping
 B|-12-0--7--12-7--0----------------------------------|---------------------------------------|
F#|-------------------12-0--7--12-7--0----------------|---------------------------------------|
 D|---------------------------------------------------|-4--2----------------------------------|
 A|---------------------------------------------------|-------5--2--------2-------------------|
 E|-------------------------------------2----5----7---|-------------5--2------2---2---5---7---|
 B|-------------------------------------0----3----5---|-----------------------0---0---3---5---|


 B|------------------------------------|---------------------------------------|---------------------------------|
F#|------------------------------------|---------------------------------------|---------------------------------|
 D|-4--2-------------------------------|-4--2----------------------------------|-4--2----------------------------|
 A|-------5--2--------2----------------|-------5--2--------2-------------------|-------5--2--------2-------------|
 E|-------------5--2------2---2---5----|-------------5--2------2---2---5---7---|-------------5--2------5----7----|
 B|-----------------------0---0---3----|-----------------------0---0---3---5---|-----------------------3----5----|


 B|---------------------------------------|---------------------------------------|
F#|---------------------------------------|---------------------------------------|
 D|-4--2----------------------------------|-4--2----------------------------------|
 A|-------5--2--------2-------------------|-------5--2--------2-------------------|
 E|-------------5--2------2---2---5---7---|-------------5--2------2---2---5---7---|
 B|-----------------------0---0---3---5---|-----------------------0---0---3---5---|


 B|---------------------------------|-0---------------------------------------------|
F#|---------------------------------|----3--0-----------3--0------------------------|
 D|-4--2----------------------------|----------3--2--0--------3--2--0---------------|
 A|-------5--2--------2-------------|----------------------------------2------------|
 E|-------------5--2------5----7----|-------------------------------------5----7----|
 B|-----------------------3----5----|-------------------------------------3----5----|


 B|---------------------------------------------|---------------------------------------------|
F#|---------------------------------------------|---------------------------------------------|
 D|---------------------------------------------|---------------------------------------------|
 A|---------------------------------------------|---------------------------------------------|
 E|-2---2---------------------------------------|-2---2---------------------------------------|
 B|-0---0---0--0--0--0--0--0--0--0--0--0--0--0--|-0---0---0--0--0--0--0--0--0--0--0--0--0--0--|


 B|---------------------------------------------|-----------------------------------|
F#|---------------------------------------------|-----------------------------------|
 D|---------------------------------------------|-----------------------------------|
 A|---------------------------------------------|-----------------------------------|
 E|-2---2---------------------------------------|-2---2-----------------------------|
 B|-0---0---0--0--0--0--0--0--0--0--0--0--0--0--|-0---0---0--0--0--0--6----5----3---|


 B|------------------|-------------|-----------------------|-----------------|----------------|
F#|------------------|-------------|-----------------------|-----------------|----------------|
 D|------------------|-------------|-----------------------|-----------------|----------------|
 A|------------------|-------------|-2-----2-------2---1---|-0---------------|----------------|
 E|------------------|-2-----------|-----------------------|-------2-----1---|-0----------0---|
 B|-5------5---3--5--|-------3-----|-----------0-----------|-----------------|--------3-------|


 B|-------------|--------|--------|--------|--------|--------|---------0------0-----0--------------|
F#|-------------|--------|--------|--------|--------|--------|---------0------0-----0--------------|
 D|-------------|--------|--------|--------|--------|-16-----|-------------------------------------|
 A|-------------|--------|--------|--------|--------|--------|-------------------------------------|
 E|-2-----------|--------|--------|-2------|-14-----|--------|-2---2-------------------5---7---2---|
 B|-------3-----|-0------|-0------|--------|--------|--------|-0---0-------------------3---5---0---|


 B|---------0------0-----0--------------|---------0------0-----0--------------|---------0------0-----0--------------|
F#|---------0------0-----0--------------|---------0------0-----0--------------|---------0------0-----0--------------|
 D|-------------------------------------|-------------------------------------|-------------------------------------|
 A|-------------------------------------|-------------------------------------|-------------------------------------|
 E|-2---2-------------------5---7---2---|-2---2-------------------5---7---2---|-2---2-------------------5---7---2---|
 B|-0---0-------------------3---5---0---|-0---0-------------------3---5---0---|-0---0-------------------3---5---0---|


 B|---------0------0-----0--------------|---------0------0-----0--------------|---------0------0-----0--------------|
F#|---------0------0-----0--------------|---------0------0-----0--------------|---------0------0-----0--------------|
 D|-------------------------------------|-------------------------------------|-------------------------------------|
 A|-------------------------------------|-------------------------------------|-------------------------------------|
 E|-2---2-------------------5---7---2---|-2---2-------------------5---7---2---|-2---2-------------------5---7---2---|
 B|-0---0-------------------3---5---0---|-0---0-------------------3---5---0---|-0---0-------------------3---5---0---|


 B|---------0------0-----0--------------|
F#|---------0------0-----0--------------|
 D|-------------------------------------|
 A|-------------------------------------|
 E|-2---2-------------------5---7---2---|
 B|-0---0-------------------3---5---0---|



Login or Register to remove this ad.