Ads

A Moon Filled Sky (Ef: A Tale of Memories) Guitar Tab

Submitted: Aug 24, 2014 by Basisti94

5
Average: 5 (6 votes)
Download | Listen
Game: Ef: A Tale of Memories
Composer(s): Tenmon, Eiichiro Yanagi
Style: Arrangement, Fingerstyle

AutoScroll: Slow | Medium | Fast
                        A Moon Filled Sky
                                
Ef: A Tale of Memories
Tenmon
Guitar arrangement by Basisti94 (Miro Laaksonen)
24.8.2014



Capo 2
Tempo ~ 100
     E  E  E  E  E  E     E  E  E  E  E  E     E  E  E  E  E  E   
E||-----------0--------|-----------0--------|-----------0--------|
B||--------1-----1-----|--------1-----1-----|--------1-----1-----|
G||-----0-----------0--|-----0-----------0--|-----0-----------0--|
D||--------------------|--------------------|--------------------|
A||--3-----------------|--3-----------------|--3-----------------|
E||--------------------|--------------------|--------------------|


  E  E  E  E  E  E     E  E  E  E  E  E     E  E  E  E  E  E   
-----------0--------|--0-----------------|--1-----0-----------|
--------1-----1-----|-----------1--------|--------------3-----|
-----0-----------0--|--------0-----0-----|-----------0--------|
--------------------|-----2-----------2--|--------2-----2-----|
--3-----------------|--3-----------------|-----2-----------2--|
--------------------|--------------------|--0-----------------|


  E  E  E  E  E  E     E  E  E  E  E  E     E  E  E  E  E  E   
--------------------|-----------------3--|--8-----------------|
--1--------1--------|-----------0--------|-----------5--------|
--------2-----2-----|--------------1-----|--------5-----5-----|
-----2-----------2--|--------2--------2--|-----7-----------7--|
--0-----------------|-----2--------------|--0-----------------|
--------------------|--0-----------------|--------------------|


   E  E  E  E  E  E     E  E  E  E  E  E     E  E  E  E  E  E   
--10-----8-----7-----|--8-----------------|-----------------3--|
------------0--------|-----------5--------|-----------1--------|
---------------------|--------5-----5-----|--------2-----2-----|
---------------------|-----7-----------7--|-----2-----------2--|
------7-----------7--|--0-----------------|--0-----------------|
---0-----------------|--------------------|--------------------|


  E  E  E  E  E  E     E  E  E  E  E  E     E  E  E  E  E  E   
--5--------------1--|--3--------------0--|--1-----0-----------|
-----------1--------|-----------1--------|--------------3-----|
--------2-----2-----|--------0-----0-----|-----2-----2-----2--|
-----3-----------3--|-----2-----------2--|--0-----------------|
--------------------|--3-----------------|--------------------|
--1-----------------|--------------------|--------------------|


  E  E  E  E  E  E     E  E  E  E  E  E     E  E  E  E  E  E   
--------------------|--0-----------------|--------------------|
--1-----------1--3--|--------------------|--1-----------3-----|
--------2-----2-----|--------------2-----|--------0--------0--|
-----2-----2--------|--------3-----------|-----0-----0--------|
--0-----------------|-----3-----3-----3--|--------------------|
--------------------|--1-----------------|--3-----------------|


  E  E  E  E  E  E     E  E  E  E  E  E     E  E  E  E  E  E   
--------------------|-----------0--------|-----------0-----1--|
--1--------1--------|--------1-----1-----|--------1-----1-----|
--------0-----0-----|-----0-----------0--|-----0--------------|
-----2-----------2--|--------------------|--------------------|
--3-----------------|--3-----------------|--3-----------------|
--------------------|--------------------|--------------------|


  E  E  E  E  E  E     E  E  E  E  E  E     E  E  E  E  E  E   
--0--------0--------|--0-----------------|--1-----0-----------|
--------1-----------|--------1-----1-----|--------------3-----|
-----0--------0-----|-----0-----0-----0--|--------------0-----|
-----------------2--|--------------------|--------2-----------|
--------------------|--3-----------------|-----2-----2-----2--|
--------------------|--------------------|--0-----------------|


  E  E  E  E  E  E     Q    Q    Q       E  E  E  E  E  E      Q    E  E  Q     
-----------0--------|------------0----|--8-----------8-----|--10----8-----7----|
--1-----------1-----|------------0----|-----------5--------|-----------0-------|
--------2-----------|--1----2---------|--------5--------5--|--------------7----|
-----2-----------2--|-------2---------|-----7--------------|---0---------------|
--0-----------------|------------2----|--0-----------------|-------------------|
--------------------|--0--------------|--------------------|---0---------------|


  E  E  E  E  E  E     E  E  E  E  E  E     E  E  E  E  E  E   
--8-----------------|--------------3-----|--5-----------------|
-----------5--------|-----------1--------|--------------1-----|
--------5-----5-----|--------2-----2-----|--------2-----------|
-----7-----------7--|-----2-----------2--|-----3-----3-----3--|
--0-----------------|--0-----------------|--------------------|
--------------------|--------------------|--1-----------------|


  E  E  E  E  E  E     E  E  E  E  E  E     E  E  E  E  E  E   
--3-----------0-----|--1-----0-----------|--------------------|
--------1-----------|-----------------3--|--1-----------1--3--|
-----0-----0-----0--|-----2-----2--------|--------2-----2-----|
--------------------|--0-----------0-----|-----2-----2--------|
--3-----------------|--------------------|--0--------------0--|
--------------------|--------------------|--------------------|


  E  E  E  E  E  E     E  E  E  E  E  E     E  E  E  E  E  E   
--0-----------------|--------------------|--------------------|
--------------------|--1-----------3-----|--1-----------------|
--------------2-----|--------0-----------|--------0-----0-----|
--------3-----------|-----0-----0-----0--|-----2-----2-----2--|
-----3-----3-----3--|--------------------|--3-----------------|
--1-----------------|--3-----------------|--------------------|


                       ^           ^                           
  E  E  E  E  E  E     E  E  E  E  E  E     E  E  E  E  E  E   
--------------------|--------------------|-----------0--------|
--------1-----1-----|--------1-----1-----|--------1-----1-----|
-----0-----0-----0--|--0--0-----0--0--0--|-----0-----------0--|
--2-----------------|--2-----------2-----|--------------------|
--3-----------------|--3-----------------|--3-----------------|
--------------------|--------------------|--------------------|


  E  E  E  E  E  E     E  E  E  E  E  E     E  E  E  E  E  E   
--8-----------------|--5-----------5-----|--7-----5--------7--|
--------------5-----|--------3-----------|--------------------|
--------5-----------|-----2-----2-----2--|--------0-----0-----|
-----7-----7-----7--|--0-----------------|-----0-----0-----0--|
--0-----------------|--------------------|--------------------|
--------------------|--------------------|--3-----------------|


  E  E  E  E  E  E     E  E  E  E  E  E     E  E  E  E  E  E   
--3-----------3-----|--5-----------5-----|--4-----5-----7-----|
--------1-----------|--------------------|--------------------|
-----0-----0-----0--|--------2-----------|--------------------|
--------------------|-----3-----3-----3--|--------2-----2-----|
--3-----------------|--------------------|-----2-----2-----2--|
--------------------|--1-----------------|--0-----------------|


  E  E  E  E  E  E     E  E  E  E   E  E     E  E  E  E   E  E   
--8-----------------|--7-----8-----10-----|--8-----------12-----|
--------5-----5-----|-----0-----0------0--|---------------------|
-----5-----5-----5--|---------------------|--------9------------|
--------------------|---------------------|-----7-----7------7--|
--0-----------------|---------------------|--0------------------|
--------------------|--0------------------|---------------------|


   E   E   E   E   E   E     E  E  E  E  E  E     E  E  E  E  E  E   
--10----------------------|--7-----5--------7--|--3-----------1--3--|
----------10------10------|--------------------|--------1-----1-----|
------10------10------10--|--------0-----0-----|-----0-----0-----0--|
---0----------------------|-----0-----0-----0--|--------------------|
--------------------------|--------------------|--3-----------------|
--------------------------|--3-----------------|--------------------|


  E  E  E  E  E  E     E  E  E  E  E  E     E  E  E  E  E  E   
--5-----------5-----|--5-----------4-----|--5-----------------|
--------------------|--------------------|--3-----------------|
--------2-----2-----|--------------------|--------2-----2-----|
-----3-----3-----3--|--------2-----2-----|-----2-----2-----2--|
--------------------|-----2-----2-----2--|--0-----------------|
--1-----------------|--0-----------------|--------------------|


  E  E  E  E  E  E     E  E  E  E  E  E     H        Q       E  E  E  E  E  E   
--------------------|--------------------|----------------|--0-----------------|
--1-----------------|--0-----------------|--1-------------|--------1-----1-----|
--------2-----2-----|--------2-----2-----|-----------0----|-----0-----0--------|
-----2-----2-----2--|-----2-----2-----2--|----------------|--------------------|
--------------------|--------------------|----------------|--3--------------3--|
--------------------|--------------------|----------------|--------------------|


  E  E  E  E  E  E     E  E  E  E  E  E     Q    Q    Q     
--1-----0-----------|--------------------|------------0----|
--------------3-----|--1-----------------|------------0----|
--------------------|--------2-----2-----|--1----2---------|
-----0--------------|-----2-----2-----2--|-------2---------|
--2--------2-----2--|--0-----------------|------------2----|
--------------------|--------------------|--0--------------|


  E  E  E  E  E  E      E  E  E  E  E  E     E  E  E  E  Q     
--8-----------8-----|--10-----8-----7-----|--8----------------|
--------------------|------------0--------|-----------5--8----|
--------5-----------|---------------------|--------5----------|
-----7-----7-----7--|---------------------|-----7-------------|
--0-----------------|------7-----------7--|--0----------------|
--------------------|---0-----------------|-------------------|


                       ^                                                        
  E  E  E  E  E  E     H        Q       E  E  E  E  E  E     E  E  E  E  E  E   
--------------3-----|--5-------------|--3-----------0-----|--1-----0-----------|
--------0-----------|-----------1----|-----------1--------|-----------------3--|
--2-----------2-----|--2-------------|--------0--------0--|-----2-----2--------|
-----2-----2-----2--|--3-------------|-----2--------------|--0-----------0-----|
--0-----------------|----------------|--3-----------------|--------------------|
--------------------|--1-------------|--------------------|--------------------|


  E  E  E  E  E  E     E  E  E  E  E  E     E  E  E  E  E  E   
--------------------|--0-----------------|--------------------|
--1-----------1--3--|--------------------|--1-----------3-----|
--------2-----2-----|--------------2-----|--------0-----------|
-----2-----2--------|--------3-----------|-----0-----0-----0--|
--0-----------------|-----3-----3-----3--|--------------------|
--------------------|--1-----------------|--3-----------------|


                                            ^                ^              
  E  E  E  E  E  E     E  E  E  E  E  E     H        Q       H        Q     
--------------------|--------------------|--0-------------|----------------|
--1-----------------|--------------1--3--|----------------|--1--------3----|
--------0-----0-----|--------0-----------|--2--------2----|----------------|
-----2-----2-----2--|-----2-----2--------|--3-------------|--0-------------|
--3-----------------|--3-----------------|----------------|----------------|
--------------------|--------------------|--1-------------|--3-------------|


  E  E  E  E  E  E     E  E  E  E  E  E     E  E  E  Q.      
--------------------|-----------0--------|-----------0------|
--1--------1--------|--------1-----1-----|--------1---------|
--------0-----0-----|-----0-----------0--|-----0------------|
-----2-----------2--|--------------------|------------------|
--3-----------------|--3-----------------|--3---------------|
--------------------|--------------------|------------------|


  E  E  E  E  E   E      H         Q       H         Q       H.            
--------------8--10--|--12--------------|--8--------10----|--8------------|
--------3------------|------------10----|-----------------|---------------|
-----0-----0---------|------------------|-----------------|---------------|
---------------------|------------------|-----------------|---------------|
--3------------------|------------------|-----------------|---------------|
---------------------|------------------|-----------------|---------------|


                  ^              
  H.              H.             
--L------------|---------------||
---------------|--1------------||
---------------|--0------------||
---------------|--2------------||
---------------|--3------------||
---------------|---------------||




Duration Legend
---------------
W - whole
H - half
Q - quarter
E - 8th
S - 16th
T - 32nd
X - 64th
. - note dotted
|-n-|  - n-tuplets


Tablature Legend
----------------
L - tied note
x - dead note
g - grace note
(n) - ghost note
> - accentuded note
NH - natural harmonic
AH - artificial harmonic
TH - tapped harmonic
SH - semi harmonic
PH - pitch harmonic
h - hammer on
p - pull off
b - bend
S - shift slide
s - legato slide
/ -  slide into from below or out of upwards
\ -  slide into from above or out of downwards
~ - vibrato
W - wide vibrato
tr - trill
TP - tremolo picking
T - tapping
S - slap
P - pop
< - fade in
^ - brush up
v - brush down
Login or Register to remove this ad.

1 comment on A Moon Filled Sky

Best Arrangement I've Heard!

Great work on this! Few roughish stretches, but AMAZING arrangement. Bravo. Much kudos.