Login or Register to remove this ad.

Twinkle Elementary School (Earthbound) Guitar Tab

Submitted: Jul 17, 2012 by Kabukibear

5
Average: 5 (2 votes)
Download | Listen
Game: Earthbound
Composer(s): Hirokazu Tanaka, Keiichi Suzuki
Style: Arrangement, Fingerstyle, Percussion

AutoScroll: Slow | Medium | Fast
Twinkle Elementary School                             
~Earthbound~
Composed by: Keiichi Suzuki, Hirokazu Tanaka, Hiroshi Kanazu, Toshiyuki Ueno
Arranged by: Justin Lincoln

Drop D(Capo 2)



     E  E  E  E  E  E  E  E     E  E  E  E  E  E  E  E   
E||--7-----------3-----------|--5-----------------------|
B||--------0--------0-----0--|--------------3-----------|
G||-----7-----7--------0-----|-----2-----2-----2-----2--|
D||--5-----------------------|--------4-----------4-----|
A||--------------------------|--------------------------|
D||--------------------------|--------------------------|


  E  E  E  E  E  E  E  E     E  E  E  E  E  E  E  E     
--------------3-----------|--7-----------3------------||
--3-----------------0-----|-----5-----5--------1------||
--------0--------2-----0--|--------5--------0-----0--*||
-----0-----0--------------|--------------0-----------*||
--2-----------------------|--3------------------------||
--------------2-----------|---------------------------||


   E  E  E  E  E  E  E  E     E  E  E  E  E  E  Q     4x
---------------------------|--------------------------||
------------3--L--------2--|--L--------1--L-----------||
*--0-----0--------0--------|-----0-----------0-------*||
*-----0--------------0-----|--------2-----------2----*||
---------------------------|-----0--L-----------------||
---5--------5--2-----------|--L-----------0-----4-----||


  E  E  E  E  E  E  E  E     E  E  E  E   E  E  Q     
--7-----------3-----------|--5-----------10----------|
-----------------------2--|--L-----------------------|
--------0--7-----0--------|-----0-----0------0-------|
-----0--------------0-----|--------2------------2----|
--------------------------|-----0--------------------|
--5--------5--2-----------|---------------0-----4----|


  E  E  E  E  E  E  E  E     E  E  E  E  E  E  Q       E  E  E  E  E  E  E  E   
--------------------------|-------------------------|--7-----------3-----------|
-----------------------2--|--L--------1--L----------|-----------------------2--|
--7--------7-----0--------|-----0-----------0-------|--------0--7-----0--------|
--5-----5-----------0-----|--------2-----------2----|-----0--------------0-----|
-----5--------------------|-----0--L----------------|--------------------------|
--5--------5--2-----------|--------------0-----4----|--5--------5--2-----------|


  E  E  E  E   E  E  Q       E  E  E  E  E  E  E  E     E  E  E  E  E  E  Q     
--5-----------10-----8----|--7-----------------------|-------------------------|
--L-----------------------|-----------------------2--|--L--------1--L----------|
-----0-----0------0-------|--------0--7-----0--------|-----0-----------0-------|
--------2-----------------|-----0--------------0-----|--------2-----------2----|
-----0--------------------|--------------------------|-----0--L----------------|
---------------0-----4----|--5--------5--2-----------|--------------0-----4----|

                                               Da Capo
         >          >  >           >          >                
    Q    E  E  Q    E  E     E  E  E  E  Q    Q     4x  Q      
|-------------------------|-------------------------||-------||
|-------------------------|-------------------------||-------||
|*------------------------|------------------------*||-------||
|*------------------------|------------------------*||-------||
|--------x----------x--x--|-----0--x--0-------x-----||-------||
|---5-------5--2----------|--------------0----4-----||--5----||




Duration Legend
---------------
W - whole
H - half
Q - quarter
E - 8th
S - 16th
T - 32nd
X - 64th
. - note dotted
|-n-|  - n-tuplets


Tablature Legend
----------------
L - tied note
x - tap
> - accentuded note
Da Capo - Back to the beginning
Login or Register to remove this ad.