Login or Register to remove this ad.

Sunrise & Onett's Theme (Earthbound) Guitar Tab

Submitted: Jul 16, 2012 by Kabukibear (Last updated: Jul 16, 2012)

5
Average: 5 (2 votes)
Download | Listen
Game: Earthbound
Composer(s): Hirokazu Tanaka, Keiichi Suzuki
Style: Arrangement, Fingerstyle

AutoScroll: Slow | Medium | Fast
Sunrise & Onett's Theme                             
~Earthbound~
Composed by: Keiichi Suzuki, Hirokazu Tanaka, Hiroshi Kanazu, Toshiyuki Ueno
Arranged by: Justin Lincoln
(Capo 3)

BPM=100

      E  E  E  E  E  Q    E     E  E  E  Q.     E  E     E  E  E  E  E  Q.      
E ||-----2--5--4--L--5----5--|--5--0--L--2------L--0--|-----2--5--4--L--5------|
B ||--3--------5--L--5-------|--2--------3------------|--3--------0--L--L------|
G ||--2----------------------|------------------------|--2--L------------------|
C#||--1--------3--L----------|--------0--1------0-----|------------------------|
A ||--------0--------5----2--|--0--2------------------|--2---------------------|
E ||-------------------------|------------------------|-----2--1--0--L--L------|

BPM=120
SEGNO
  E  E  E  E  E  E  E  E     E  E  E  E  E  E  E  E   
--------------------------|--------------------------|
--------------------------|--------------------------|
--------------------------|--------------------------|
--------0-----------------|--------0-----------------|
--0--2-----0--2--------0--|--0--2-----0--2--------0--|
-----------------2--0-----|-----------------2--0-----|


    E  E  E  E  E  E  E  E     E  E  E  E  S S E  E  E   
|------0--4--5--0-----------|-----0--4--5--0-0----------|
|------2--5--7--2-----------|-----2--5--7--2-2-3--2--3--|
|*--------------------------|------------------4--2--4--|
|*--------0-----------------|--------0------------------|
|---0--2-----0--2--------0--|--0--2-----0--2---------0--|
|------------------2--0-----|------------------2--0-----|


  E  E  E  E  E  E  E  E     E  E  E  E  E  E  E  E   
-----0--4--5--0-----------|-----0--4--5--0-----------|
-----2--5--7--2-----------|-----2--5--7--2--3--2--3--|
--------------------------|-----------------4--2--4--|
--------0-----------------|--------0-----------------|
--0--2-----0--2--------0--|--0--2-----0--2--------0--|
-----------------2--0-----|-----------------2--0-----|


  E  E  E  E  E  E  E  E     E  E  E  E  E  E  E  E   
-----------0--------------|-----------0--------------|
-----2--3--2--3-----------|-----2--3--2--3--3-----2--|
-----2--4-----------------|-----2--4-----------------|
--------0-----5-----------|--------0-----5--5-----3--|
--0--2-----0--2--------0--|--0--2-----0--2--------0--|
-----------------2--0-----|-----------------2--0-----|


  E  E  E  E  E  E  E  E     E  E  E  E  E  E  E  E   
-----------0--------------|-----------0--------------|
-----2--3--2--3-----------|-----2--3--2--3--3-----2--|
-----2--4-----------------|-----2--4-----------------|
--------0-----5-----------|--------0-----5--5-----3--|
--0--2-----0--2--------0--|--0--2-----0--2--------0--|
-----------------2--0-----|-----------------2--0-----|

 1st Ending -----------------------

  E  E  E  E  E  E  E  E     E  E  E  E  E  E  Q       E  E  E  E  E  E  Q     
--2--2--5--4--L--4--L-----|--0--0--4--2--L--1--L----|--2--2--5--4--L--2--4----|
--3--2--3--0--L--5--L--3--|--2--0--2--------3--L----|--3--2--3--0--L-----0----|
--2-----------------------|-----------2--L----------|--2----------------------|
-----------------3-----0--|-------------------------|-----------3--L-----4----|
--2-----------L-----------|--0----------------------|--2----------------------|
--------------------------|-----------2--L--1--L----|-------------------------|

                           2nd Ending --------------------
                                                     ^         ^               
  E  E  E  E  H             E  E  E  E  Q    Q       E   E  E  E  Q     E  E   
--5--7--9--2--L---------||-----2--4--5--L----7----|--9------9--7--L--------7--|
-----------3--L---------||--2---------------------|-----10-------------10-----|
--6--------2--L--------*||--2-----------2---------|--9---------8--L-----------|
--5--------1--L--------*||--5-----------4---------|---------------------------|
------------------------||------------------------|--7---------6--L-----------|
------------------------||------------------------|---------------------------|


  ^                                                                        
  Q    E  E  E  E  E  E     Q.     E  Q    Q       E  E  E  E  E  E  Q     
--9----5--------0--L-----|----------------------|-----2--4--5--L-----7----|
--5-------7--L--------2--|--L-------------------|--2----------------------|
--7-------7--L--------2--|--L-------------------|--2----------------------|
-------------------------|----------------------|-----------------0-------|
--5----------7-----------|--0---------0---------|-------------------------|
-------------------------|---------0-------4----|--2-----------1----------|

                                                                      DA CODA
  ^         ^                 ^       ^                ^        ^               
  E   E  E  E  Q     E  E     Q    E  E  Q    E  E     E  E  E  E  E  E  E  E   
--9------9--7--L--------7--|--9----5----------5--7--|--9--5--9--7--L-----------|
-----10-------------10-----|--7-------7--L----------|--7--------9--L-----------|
--9---------8--L-----------|--7-------7--L----------|--7--------9--L-----------|
---------0-----------------|------------------------|--------------------------|
---------------------------|--5-------7--L----------|--5-----------------------|
--0---------7--L-----------|------------------------|-----------0--L--0--2--4--|

                                             
                                         D.S.AL CODA   (CODA)
                                                         ^      
  E  E  E  E  E  E  E  E     E  E  E  E  S S E  E  E     Q      
--------------------------|---------------------------|-------||
--------------------------|---------------------------|--2----||
--------------------------|---------------------------|--2----||
--------0-----------------|--------0------------------|--3----||
--0--2-----0--2--------0--|--0--2-----0--2-2-------0--|--0----||
-----------------2--0-----|------------------2--0-----|-------||




Duration Legend
---------------
W - whole
H - half
Q - quarter
E - 8th
S - 16th
T - 32nd
X - 64th
. - note dotted
|-n-|  - n-tuplets


Tablature Legend
----------------
L - tied note
^ - brush up
v - brush down
D.S.AL CODA - Jump to the measure marked with SEGNO and play until you reach DA CODA
DA CODA - Jump to the measure marked with (CODA)
Login or Register to remove this ad.

1 comment on Sunrise & Onett's Theme

Kabukilicious.

5

Kabukilicious.