Ads

Smiles and Tears (Earthbound) Guitar Tab

Submitted: Oct 07, 2010 by Chronos Regex

5
Average: 5 (13 votes)
Download | Listen
Game: Earthbound
Composer(s): Hirokazu Tanaka, Keiichi Suzuki
Style: Arrangement, Fingerstyle

AutoScroll: Slow | Medium | Fast
Smiles and Tears -Shigesato Itoi
EarthBound/Mother 2


Tabbed by Chronos
10-7-2010

                                 


4/4 Time

      E  E  E  E  E  E  E  E     E  E  E  E  E  E  Q     
E||--------3--------3--------|--------3--------3-------|
B||-----3--------3--------3--|-----3--------3----------|
G||--4--------5--------5-----|--4--------5--------5----|
D||--------------------------|-------------------------|
A||--------------------------|-------------------------|
D||--------------------------|-------------------------|


  Q    E  E  E  E  E  E     Q    E  Q.     E  E     Q.     E  E  E  E  E   
-------------------------|--0--------------------|------------------3--2--|
-------------------0--1--|----------3------0--3--|--3---------L--3--------|
--0-------------2--------|-----------------------|------------------------|
-------------------------|-----------------------|------------------0-----|
-------------------0-----|-----------------------|---------3--------------|
--5----0--5--------------|--5----0--5------L-----|--5---------------------|


  Q.     E  E  E  E  E     Q.     E  Q    Q       W                 
------------------------|----------------------|-------------------|
--3---------3-----1--0--|----------------------|-------------------|
---------------2--------|--0-------------------|--L----------------|
------------------0-----|----------------------|-------------------|
---------3--------------|----------------------|-------------------|
--5---------------------|--5------5--5----5----|--5----------------|


  H        E  E  E  E     Q    E  E  Q    E  E     Q    Q    E  E  E  E   
-----------------------|------------------------|------------------------|
-----------------------|--0----0--3----------0--|------------------0-----|
-----------------0--2--|-------------2----2-----|--0---------L--0-----2--|
--------------0--------|------------------0-----|------------------------|
-----------------------|-------------3----------|-------2----------------|
-----------------------|--5---------------------|--5---------5-----------|


  Q    E  E  Q.     E     H.           E  E     Q.     E  Q    Q     
-----------------------|---------------------|----------------------|
-------0--3--2------3--|--3---------------0--|---------0-------3----|
--0--------------------|---------------------|--0---------2---------|
--2--------------------|---------------------|----------------------|
-------------0---------|---------------------|------------2---------|
-----------------------|--0------------------|--5-------------------|


  Q    E  S S Q    E  E     Q.     E  Q    Q       Q    E  Q.     Q     
--0----------------------|----------------------|----------------------|
----------0--------------|---------0------------|----------------------|
------------2-0----------|--0---------2---------|--0-------0------0----|
--2----1------0-------2--|-----------------4----|-------0--2------4----|
-------------------4-----|--3---------5---------|----------3-----------|
-------------------------|----------------------|--5--------------0----|


  E  E  E  Q    E  E  E     Q    E  E  Q    E  E     Q    E  E  E  E  E  E   
-------------------------|------------------------|-------------------------|
-------------------------|--0----0--3----------0--|-------------------0-----|
--0-----L--0----L--0--2--|----------0--2----2-----|--0----------L--0-----2--|
--0--L--0--2----0--------|------------------0-----|-------0-----------------|
--2--2-----3----------L--|-------------3----------|-------------------------|
--5----------------------|--5---------------------|--5-------5--------4-----|


  Q    E  E  Q    E  E     Q.     E  Q    E  E     Q.     E  Q    E  E   
------------------------|-----------------------|-----------------------|
-------0--3--2-------3--|--3-----------------0--|---------0-------3-----|
--0---------------------|-----------------------|--0---------2----------|
--2-------0-------------|------------0----L-----|-----------------------|
-------------4----0-----|---------0--L----0-----|------------2-------2--|
------------------------|--0--------------L-----|--5------5-------------|


  Q    E  S S Q    E  E     Q.     E  Q    Q       Q    E  Q    E  Q     
--0----------------------|----------------------|-----------------------|
----------0--------------|---------0------------|-----------------------|
------------2-0----------|--0---------2---------|--0-------0-------0----|
--2----1------0-------2--|-----------------4----|-------0--2-------4----|
-------------------4-----|--3------3------------|----------3------------|
-------------------------|------------0----0----|--5------------2--0----|


  E  E  E  Q    E  E  E     Q    E  E  Q    E  E     E  E  E  E  E  E  E  E   
-------------------------|--0----3-----2----------|--------------------------|
-------------------0--3--|---------------------3--|--0--3--0--------------0--|
--0--------0----0--------|------------------------|--------------------2-----|
--0-----0--2-------0-----|------------------------|--------------------------|
--2--2--2--3----3--------|--3-------3-------------|--------------------------|
--5--0-------------------|-------------0----0-----|--5--------0--5--5--4-----|


  Q    E  E  E  E  Q       Q.     S  S  E  E  E  E     E  E  E  E  E  Q    E   
------------------------|---------------------------|--0-----3-----2----------|
----------0-------------|---------------------------|----------------------3--|
--0----------2-----0----|--0------------------------|-------------------------|
--2----0----------------|--0------4p-2h-4-----------|-----------2--0----------|
-------------4--2--0----|---------0-----5--5--4--3--|--3--3-------------------|
------------------------|---------------------------|-----------------0----5--|


  E  E  E  Q.     E  E     Q.     E  Q    E  E     Q.     E  H         
------------------------|-----------------------|---------------------|
--0---------------------|-----------------------|---------------------|
--------2--0------------|--0------4--2----0-----|--0------------------|
-----4---------------2--|--------------------4--|---------------------|
--2---------------------|--3------3-------------|---------------------|
--------4--2------0-----|------------0----0-----|--5------0--5--------|


  Q    E  E  Q    E  E     Q    Q    E  E  E  E     Q    E  E  Q    Q     
------------------------|------------------------|-----------------------|
----------3-------------|------------------------|-----------------------|
--3----3-----2----2--3--|--0------------0--3--2--|--0----0--3--2---------|
-------0----------0-----|-------0----------0-----|------------------0----|
------------------------|------------------------|-------1---------------|
--5----------4----------|--3---------2-----------|--1----------0---------|


  Q    E  E  Q    Q       Q    E  E  Q    E  E     Q    Q    E  E  E  E   
-----------------------|------------------------|------------------------|
-----------------------|----------3-------------|------------------------|
--0----0--3--2---------|--3----3-----2----2--3--|--0---------L--0--3--2--|
-------------0---------|-------0----------0-----|-------0----------0-----|
--4--------------------|------------------------|------------------------|
-------5----------4----|--5----------4----------|--3---------2-----------|


  Q    E  E  Q    Q       Q    E  E  E  E  E  E       E  E  E  E  E  E  E  E   
-----------------------|-------------------------||---------3--------3--------|
----------3------------|-------------------------||---0--3-----1--3-----1--3--|
--0----0-----2---------|--0----0--3--2--2--------||*--------------------------|
------------------0----|-------------0-----4--4--||*--------0-----------0-----|
-------1---------------|--4----------------------||---2-----------0-----------|
--1----------0---------|-------5-----------4-----||---------------------------|


  E  E  E  E  E  E  E  E     E  E  E  E  E  E  E  E   
--------3--------3--------|--------3--------3--------|
--0--3-----1--3-----1--3--|--0--3-----1--3-----1--3--|
--------------------------|--------------------------|
--------0-----------------|--------0-----------0-----|
--------------------0-----|--2-----------0-----------|
--5-----------5-----------|--------------------------|


  E  E  E  E  E  E  E  E     E  E  E  E  E  E  E  E   
--------3--------3--------|--------3--------3--------|
--0--3-----1--3-----1--3--|--0--3-----1--3-----1--3--|
--------------------------|--------------------------|
--------0-----------------|--------0-----------0-----|
--------------------0-----|--2-----------0-----------|
--5-----------5-----------|--------------------------|


  E  E  E  E  E  E  E  E       E  E  E  E  E  E  E  S S  
--------3--------3---------||--------3--------3---------|
--0--3-----1--3-----1--3---||--0--3-----1--3-----1--3---|
--------------------------*||---------------------------|
--------0-----------------*||---------------------------|
--------------------0------||-----------3-----------2-3-|
--5-----------5------------||--5------------------------|


  E  E  E  E  E  E  E  E     Q    E  E  Q    E  E     Q.     E  E  E  E  E   
--------3-----------------|------------------------|------------------------|
--0--3-----1--3-----------|--0----0--3----------0--|------------------0-----|
--------------------0--2--|-------------2----2-----|--0------------0-----2--|
--0-----2--------0--------|------------------------|------------------------|
-----------3--------3-----|-------------3----------|------------------------|
--------------------------|--5-------5-------0-----|--5------0--5--5--4--4--|


  Q    E  E  E  E  E  E     Q.     E  Q    E  E     Q.     E  Q    E  E   
-------------------------|-----------------------|-----------------------|
-------0--3--2--------3--|--3-----------------0--|---------0-------3-----|
--0----------------------|-----------------------|--0---------2----------|
-------------------------|-----------------------|--------------------0--|
-------------4--2--0-----|-----------------0-----|------------2----2-----|
--2----0--0--------------|--0------0--0----------|--5------5-------------|


  Q    E  S S Q    E  E     Q.     E  Q    E  E     Q.     Q.     E  S S  
--0----------------------|-----------------------|-----------------------|
----------0--------------|---------0-------------|-----------------------|
------------2-0----------|--0---------2----0-----|--0----------------4-2-|
--2----1------0-------2--|--------------------4--|----------------0------|
-------------------4-----|--3------3-------------|---------3-------------|
-------------------------|------------0----0--0--|--5--------------------|


  Q    E  Q    E  E  E     Q    E  E  Q.     E     E  E  E  E  E  E  E  E   
------------------------|--0----3-----2---------|--------------------------|
------------------0--3--|--------------------3--|--0--3--0--------------0--|
--0------------0--------|-----------------------|--------------------2-----|
----------2-------------|-----------------------|--------------------------|
-------2--3----3--3--3--|--3-------3------------|--------------------------|
--5---------------------|-------------0------0--|--5--------0--5--5--4-----|


  Q    E  E  Q.     E     Q.     S S Q.     E     Q    E  E  Q.     E   
-----------------------|-----------------------|--0----3-----2---------|
-------0---------------|-----------------------|--------------------3--|
--0----------2------0--|--0--------------------|-----------------------|
-----------------------|---------4-2-4---------|-----------------------|
-------------0------0--|-----------------------|--3-------3------------|
--2-------2------------|--0------0---0------0--|-------------0------0--|


  E  E  E  Q.     E  E     Q.     E  Q.     E     Q.     E  E  E  E  E   
------------------------|----------------------|------------------------|
--0---------------------|----------------------|--0---------------0--3--|
--------2--0------------|--0---------2------0--|---------------0--------|
-----4---------------2--|---------2------------|------------------------|
--2-----2---------------|--3------3------------|------------------------|
-----------2------0-----|------------0------0--|--5------5--5--5--5--5--|


  Q    E  E  Q.     E     E  E  E  E  E  E  E  E     Q    E  E  Q.     E   
--0----3-----2---------|--------------------------|-----------------------|
--------------------3--|--0--3--0--------------0--|-------0---------------|
-----------------------|--------------------2-----|--0----------2------0--|
-----------------------|--------------------------|-----------------------|
--3-------3------------|--------------------------|-------------0------0--|
-------------0------0--|--5--------0--5--5--4-----|--2-------2------------|


  Q.     S S Q.     E     Q    E  E  Q.     E     E  E  E  Q.     E  E   
-----------------------|--0----3-----2---------|------------------------|
-----------------------|--------------------3--|--0---------------------|
--0--------------------|-----------------------|--------2--0------------|
---------4-2-4---------|-----------------------|-----4---------------2--|
-----------------------|--3-------3------------|--2-----2---------------|
--0------0---0------0--|-------------0------0--|-----------2------0-----|


  E  E  E  E  Q    E  E     Q    E  E  Q    E  E     Q    E  E  Q.     S S  
-------------------------|------------------------|------------------------|
-----------0-------------|------------------------|------------------------|
--0--------0--2----0-----|--0---------------------|-------0------------0-2-|
--------2-----4----2--4--|-------------0-------0--|--2----------4----------|
-----3----------------5--|--2----3----------2-----|--3-------3-------------|
--5----------------------|--5-------0--5----5--5--|-------------0------0---|


  E  E  E  E  H           Q    E  E  Q    Q       Q.     E  E  E  E  E   
-----------------------|-----------------------|------------------------|
--0--3-----3-----------|-----------------------|------------------------|
--------2-----0--------|--0----2--3--2---------|--0---------------------|
-----------------------|------------------0----|------------------0-----|
-----------------------|-----------------------|------------------------|
--5-----4-----2--------|--1-------1--0----0----|--5------0--5--5--5--5--|


                           Gradually slow down

  Q    E  E  Q     E  E      Q     E  S S Q    Q     
------------------10-----|--12--------7-5-3---------|
-------------------------|--------------------------|
--0----2--3--2-----------|--------------------------|
--1-------1--0--------0--|----------------0---------|
-------------------------|---------------------4----|
-------------------------|--14----13----------------|


5/4 Time                          

          "I miss you"             Normal speed           Grad. slow until end
  H        Q          Q    E  E     Q    E  E  H           Q    E  E  H         
--L---------------------------0--|--3----5--6--5--------|----------------------|
---------------------------------|----------------------|----------------------|
---------------------------------|----------------------|--0----2--3--2--------|
---------------------------------|----------------------|----------------------|
--L------------------------------|--3-------3-----------|----------------------|
---------------------------------|-------------0--------|--1-------------------|


  Q    E  E  H           Q    E  E  Q    Q       Q    E  E  Q    Q     
----------------------|-----------------------|-----------------------|
----------------------|-----------------------|-------------0----3----|
-------2--3--2--------|-------2--3--2----0----|-------0---------------|
--5----0--1--0--------|--5----0--1--0---------|--0--------------------|
--3-------------------|-----------------------|-----------------------|
--0-------------------|--1----------0---------|--5-------5--5----5----|


  ^                  
  W                  
--3----------------||
--3----------------||
--0----------------||
--0----------------||
-------------------||
--5----------------||




Duration Legend
---------------
W - whole
H - half
Q - quarter
E - 8th
S - 16th
. - note dotted


Tablature Legend
----------------
L - tied note
h - hammer on
p - pull off
Login or Register to remove this ad.

4 comments on Smiles and Tears

so f****** awesome!!! thank

5

so f****** awesome!!! thank you i waited so long for this tab!!! all my internets to you sir

this is the video i know this song from

MOTHER2 "Eight Melodies" (solo guitar instrumental)
http://www.youtube.com/watch?v=lUI1M2-dxgg

You're Awesome!

5

Thank you very much for this tab! :D
Been waiting a long time for someone to tab this out,
and you did a wonderful job at it. :P

Amazing

Whoever you are, you pulled this off nicely. I am eternally grateful.

Smiles and Tears

5

I can't help myself from smiling and crying whenever I play this song. I know it's a bit ironic but that's what happens. Thanks for this amazing tab that actually made me cry.