Login or Register to remove this ad.

Pollyanna (I Believe In You) (Earthbound) Guitar Tab

Submitted: Jul 21, 2012 by Kabukibear

5
Average: 5 (6 votes)
Download | Listen
Game: Earthbound
Composer(s): Hirokazu Tanaka, Keiichi Suzuki
Style: Arrangement, Fingerstyle

AutoScroll: Slow | Medium | Fast
Pollyanna (I Believe in You)                           
~Earthbound~
Composed by: Hirokazu Tanaka, Keiichi Suzuki
Arranged by: Justin Lincoln

Drop D

     E  E  E  E  E  Q    E     E  E  E  E  H           E  E  E  E  E  Q    E   
E||-------------------------|-----------------------|-------------------------|
B||-----0--3--2--L--3----3--|--3--------0--L--------|-----0--3--2--L--3----3--|
G||--0--0--4--2--L-------2--|--2--2--L--------------|--0--0--4--2--L--0-------|
D||--0----------------------|-----4--L--0--L--------|--0-------------------4--|
A||-----------0--L----------|-----------------------|-----------0--L----------|
D||--5----------------------|--0--------5--L--------|--5-------------------0--|


  W                     E  E  E  E  E  E  E  E     E  E  E  E  E  E  E  E   
-------------------||---------------0-----------|--------------------------|
--L----------------||---------------------2--3--|--L-----------------------|
-------------------||*--------2--2--------2-----|-----------4-----------2--|
--L----------------||*--4--4-----------2--------|-----0--4--------0--4-----|
-------------------||---5--------5--4--------4--|--2--------2--0-----------|
--L----------------||---------------------------|--------------------------|


  E  E  E  E  E  E  E  E     E  E  E  E  E  E  E  E   
--------------2-----------|--------------------------|
--0--0--3--3--------3-----|--------------------------|
-----------0-----2-----2--|--L-----2--0--L-----------|
--------------------------|-----0-----------2-----2--|
--------------------------|--------------0-----4-----|
--5-----------4--------4--|--3-----------------------|


  E  E  E  E  E  E  E  E     E  E  E  E  E  E  E  E   
--------------0-----------|--------------------------|
--------------------2--3--|--L-----------------------|
--------2--2--------2-----|-----------4-----------2--|
--4--4-----------2--------|-----0--4--------0--4-----|
--5--------5--4--------4--|--2--------2--0-----------|
--------------------------|--------------------------|


  E  E  E  E  E  E  E  E     E  E  E  E  E  E  E  E   
--------------2-----------|--------------------------|
--0--0--3--3--------3-----|--------------------------|
-----------0-----2-----2--|--L-----2--0--L-----------|
--------------------------|-----0-----------2-----2--|
--------------------------|--------------0-----4-----|
--5-----------4--------4--|--3-----------------------|


  E  E  E  E  E  E  E  E     E  E  E  E  E  E  E  E   
--------------------------|--------------7-----------|
--------------------0-----|--3-----7-----------------|
--------------------------|--------------------------|
--4--2--0--2--4-----------|--------------------0-----|
--2--2-----2--1--1-----1--|--0--0-----0--------------|
--------------------------|--------------6--6-----9--|


  E  E  E  E  E  E  E  E     Q.     E  H           E  E  E  E  E  E  E  E   
--------------------------|---------------------|--------------------------|
--0-----0-----0-----0-----|---------------------|--------------------------|
--7--6--0--6--7--6--0--6--|--7------------------|--2--2--2-----2-----------|
-----7-----7-----7-----7--|---------------------|--------4--------4--2--0--|
--------------0--0--0--0--|--9------------------|-----4--------------4-----|
--5--5--5--5--------------|--0------0--0--------|--4--------4--L-----------|


  E  E  E  E  E  E  E  E     E  E  E  E  E  E  E  E   
--------------------------|--------------0-----------|
--------------------------|-----------------3--2--3--|
--------0-----------0-----|--2--2--2-----------2-----|
--L-----------------------|--------4--------2--------|
-----5-----------5--------|-----4--------0--------0--|
--5--------5--L--------5--|--4--------4--------------|


  E  E  E  E  E  E  E  E     E  E  E  E  E  E  E  E   
--------------------------|--------------------------|
--L-----------------0--2--|--3--2--0--2--3--2--0--2--|
--------------2--------2--|--4--0-----0--2-----------|
--0-----0--4-----0--4-----|--------0--------4--0--4--|
-----0--------------------|--------------------------|
--------------------------|--5--5--5--5--4--4--4--4--|


  E  E  E  E  E  E  E  E     E  E  E  E  E  E  E  E   
--------------------------|--------------------------|
--3--2--0--2--3-----------|--3--2--0--2--3--2--0--2--|
--0--0--0--0--2-----2--2--|--4--0-----0--2-----------|
-----------------4--0--4--|--------0--------4--0--4--|
--------------------------|--------------------------|
--2--2--2--2--4--4--4--4--|--5--5--5--5--4--4--4--4--|

1st Ending ----------------------------------          2nd Ending ----------
  E  E  E  E  E  E  E  E     H        E  E  E  E       E  E  E  E  E  E  E  E   
--------------2-----------|------------------------||--------------2-----------|
--3--3--3--3-----3-----3--|--L---------------------||--3--3--3--3-----3-----3--|
--4--4--4--4--2--0--------|-----------------------*||--4--4--4--4--2--0--------|
-----------------------4--|--L--------------2-----*||-----------------------4--|
--------------0--0--0-----|--------------0-----4---||--------------0--0--0-----|
--2--2--4--5-----------0--|--L--------L------------||--2--2--4--5-----------0--|


  W                   E  E  E  E  E  Q    E     E  E  E  E  H         
-------------------|-------------------------|-----------------------|
--L----------------|-----0--3--2--L--3----3--|--3--------0--L--------|
-------------------|--0--0--4--2--L-------2--|--2--2--L--------------|
--L----------------|--0----------------------|-----4--L--0--L--------|
-------------------|-----------0--L----------|-----------------------|
--L----------------|--5----------------------|--0--------5--L--------|

Gradually slow down ----------,
                      ^                        
  E  E  E  E  E  Q    E     W                  
-------------------------|-------------------||
-----0--3--2--L--3----3--|--L----------------||
--0--0--4--2--L--0----2--|--L----------------||
--0-------------------4--|--L----------------||
-----------0--L----------|-------------------||
--5-------------------0--|--L----------------||




Duration Legend
---------------
W - whole
H - half
Q - quarter
E - 8th
S - 16th
T - 32nd
X - 64th
. - note dotted
|-n-|  - n-tuplets


Tablature Legend
----------------
L - tied note
^ - brush up
v - brush down
Login or Register to remove this ad.

12 comments on Pollyanna (I Believe In You)

I think I am doing something

I think I am doing something wrong with my fingering because both in this tab and auris I stumble a lot at the end part.

Which part and what fingering

Which part and what fingering are you using?

Some chord switches can simply be tough.

I love it!! Do a recording!

5

I love it!! Do a recording! xD

E E E E E E E E

 E  E  E  E  E  E  E  E   
|--------------------------|
|--3--2--0--2--3--2--0--2--|
|--4--0-----0--2-----------|
|--------0--------4--0--4--|
|--------------------------|
|--5--5--5--5--4--4--4--4--|


  E  E  E  E  E  E  E  E     E  E  E  E  E  E  E  E   
--------------------------|--------------------------|
--3--2--0--2--3-----------|--3--2--0--2--3--2--0--2--|
--0--0--0--0--2-----2--2--|--4--0-----0--2-----------|
-----------------4--0--4--|--------0--------4--0--4--|
--------------------------|--------------------------|
--2--2--2--2--4--4--4--4--|--5--5--5--5--4--4--4--4--|

This part

karathrow said E E E E

karathrow said

 E  E  E  E  E  E  E  E   
|--------------------------|
|--3--2--0--2--3--2--0--2--|
|--4--0-----0--2-----------|
|--------0--------4--0--4--|
|--------------------------|
|--5--5--5--5--4--4--4--4--|


  E  E  E  E  E  E  E  E     E  E  E  E  E  E  E  E   
--------------------------|--------------------------|
--3--2--0--2--3-----------|--3--2--0--2--3--2--0--2--|
--0--0--0--0--2-----2--2--|--4--0-----0--2-----------|
-----------------4--0--4--|--------0--------4--0--4--|
--------------------------|--------------------------|
--2--2--2--2--4--4--4--4--|--5--5--5--5--4--4--4--4--|

This part


   2  1  4  1  2  1  3  1
   3  4     4  1  4     4
   4           3  3     3
     
|--------------------------|
|--3--2--0--2--3--2--0--2--|
|--4--0-----0--2-----------|
|--------0--------4--0--4--|
|--------------------------|
|--5--5--5--5--4--4--4--4--|


  
  2  2  1  2  2  4  1  1
  1  1     1  1  3  3  4
              3        3 
--------------------------|--------------------------|
--3--2--0--2--3-----------|--3--2--0--2--3--2--0--2--|
--0--0--0--0--2-----2--2--|--4--0-----0--2-----------|
-----------------4--0--4--|--------0--------4--0--4--|
--------------------------|--------------------------|
--2--2--2--2--4--4--4--4--|--5--5--5--5--4--4--4--4--|

This way is the easiest for me.

from top to bottom is first to last fretting finger used on the highest to lowest string; excluding open notes of course.

that's the exact fingering I

that's the exact fingering I use as well. I guess I just need to practice it to make it more fluid.

I play it a little

I play it a little differently...

   1  1  3  1  2  1  3  1
   2  3     3  1  4     4
   3           3  3     3
     
|--------------------------|
|--3--2--0--2--3--2--0--2--|
|--4--0-----0--2-----------|
|--------0--------4--0--4--|
|--------------------------|
|--5--5--5--5--4--4--4--4--|


  
  3  2  1  2  2  4  1  1
  1  1     1  1  3  3  4
              3        3 
--------------------------|--------------------------|
--3--2--0--2--3-----------|--3--2--0--2--3--2--0--2--|
--0--0--0--0--2-----2--2--|--4--0-----0--2-----------|
-----------------4--0--4--|--------0--------4--0--4--|
--------------------------|--------------------------|
--2--2--2--2--4--4--4--4--|--5--5--5--5--4--4--4--4--|

Kabukibear said I play it a

Kabukibear said

I play it a little differently...

   1  1  3  1  2  1  3  1
   2  3     3  1  4     4
   3           3  3     3
     
|--------------------------|
|--3--2--0--2--3--2--0--2--|
|--4--0-----0--2-----------|
|--------0--------4--0--4--|
|--------------------------|
|--5--5--5--5--4--4--4--4--|


  
  3  2  1  2  2  4  1  1
  1  1     1  1  3  3  4
              3        3 
--------------------------|--------------------------|
--3--2--0--2--3-----------|--3--2--0--2--3--2--0--2--|
--0--0--0--0--2-----2--2--|--4--0-----0--2-----------|
-----------------4--0--4--|--------0--------4--0--4--|
--------------------------|--------------------------|
--2--2--2--2--4--4--4--4--|--5--5--5--5--4--4--4--4--|

That seems a little harder to use the ring and index instead of pinky and index.

Don't make me hit you.

Don't make me hit you.

Kabukibear saidDon't make me

Kabukibear said

Don't make me hit you.

;-;

I meant for this part

-
2
0
-
-
5

lets open competing dojos

lets open competing dojos

This tab sounds perfect so

5

This tab sounds perfect so far. :D