Ads

Pollyanna (Earthbound) Guitar Tab

Submitted: Jul 01, 2009 by auriplane (Last updated: Feb 04, 2010)

5
Average: 5 (4 votes)
Download | Listen
Game: Earthbound
Composer(s): Hirokazu Tanaka, Keiichi Suzuki
Style: Arrangement, Fingerstyle

AutoScroll: Slow | Medium | Fast
                      Earthbound - Pollyanna GUITAR TAB
                   Song by Hirokazu Tanaka, Keiichi Suzuki

                   Tabbed by auriplane ([email protected])
                               On May 14, 2009 


This is the same as the one I submitted before for Mother 1, since it's
the same song.  I deleted the old one and submitted this one under the
game "Earthbound" so I could submit it to the SNES project :-)  There
is a GP5 file this time, too.

Drop-D tuning.

    Intro

e |----------------|----------------|----------------|----------------|
B |--0-3-2---3---3-|3-----0---------|--0-3-2---3---3-|L---------------|
G |0-0-4-----------|--2-------------|0-0-4-----------|----------------|
D |0-----2---4---4-|4-4---0---------|0-----2---4---4-|L---------------|
A |------0---------|----------------|------0---------|----------------|
D |5---------------|0-----5---------|5-------------0-|L---------------|
                            
    Part A

e |--------0-------|----------------|--------2-------|----------------|
B |----3-------2-3-|3-----3-2-----2-|0-----3-----3---|----1---2-------|
G |--2-------2-----|----4-------2---|----0---------2-|--2---------0---|  
D |4-------2-------|--4-------4-----|--0-------0-----|3-----3---2---2-| x2
A |5-----5-4-----4-|2-----2-0-----0-|----------------|--------0-----0-|    
D |----------------|----------------|5-----5-4-----4-|3-----3---------|    

e |2-0---0-2-------|----2---7-------|----------------|----------------|
B |----3-------0---|3-------7-------|3-----2-3---2-3-|3---------------|
G |----4-----------|----------------|----4-----------|----------------|
D |--4-------4-----|--4-------------|--0-------0-----|4---------------|
A |2-------1-------|0---------------|--------0-------|----------------|
D |----------------|--------6-------|5---------------|0---------------|

    Part B

e |----------------|----------------|--------0-------|--------2-------|
B |----2-----------|------3---------|----2-----3-2-3-|------3-----0-2-|
G |2-------2-------|----0-----------|2-------0-------|----2-----2-----|
D |----------4-2-0-|--0---------0---|--------------4-|--4-------------|
A |--4-------------|----------------|--4-----0-----0-|5-----5-5-----5-|
D |4-----4---------|5-----5---------|4-----4---------|----------------|
                            
e |----------------|----------------|----------------|--------2-------|
B |3-2-0-2-3-2-0-2-|3-2-0-2-3-----2-|3-2-0-2-3-2-0-2-|3-----3---3---3-|
G |0-------2-------|0-------2---2---|0-------2-------|0---0-------2---|
D |----------------|----------------|----------------|--0-------------|
A |----------------|----------------|----------------|--------0-------|
D |5-------4-------|2-------4-------|5-------4-------|2---------------|

e |----------------|
B |L---------------|
G |----------------|
D |----------------|
A |----------------|
D |0---------------|

    Repeat back to Part A.
Login or Register to remove this ad.

4 comments on Pollyanna

Pollyana i believe in you

Pollyana i believe in you

An excellet tab.

5

I've been practicing this tab for the last half-hour, can play the into full-speed and can tell this is one quality tab.

Great to be able to play one of my childhood favorites.

Thanks! :-)

Thanks! :-)

Struggling to keep the notes

5

Struggling to keep the notes ringing out but I still really like this tab and I love this song. Good job snaily lady~