Ads

Paula's Theme (Earthbound) Guitar Tab

Submitted: Feb 07, 2012 by Lemoncobbler

5
Average: 5 (1 vote)
Download | Listen
Game: Earthbound
Composer(s): Hirokazu Tanaka, Keiichi Suzuki
Style: Arrangement, Fingerstyle

AutoScroll: Slow | Medium | Fast
                                Paula's Theme                                   

Earthbound for the SNES
Composed by Keiichi Sezuki
Tabbed by Lemoncobbler
Jan 6th 2012



(Capo 6)
     E  E  E  E  E  E  E  E     E  E  E  E  E  E  E  E   
E||--3--L--------5-----6-----|--4--------L--1--------L--|
B||--------------------------|--------------------------|
G||--------0--0--------0--0--|--------------------------|
D||--0--0--------0--0--------|--------3--3--------3--3--|
A||--------------------------|--3--3--------3--3--------|
E||--------------------------|--------------------------|


  E  E  E  E  E  E  E  E     E  E  E  E  E  E  E  E   
--------------------------|--------------------------|
--4--L-----L--6--L--7--L--|--6--------L--3--------L--|
--------------------------|--------------------------|
--------1--1--------------|--------0--0--------0--0--|
--1--1--------------6--6--|--0--0--------0--0--------|
--------------6--6--------|--------------------------|


  E  E  E  E  E  E  E  E     E  E  E  E  E  E  E  E   
--3--L--------5-----6-----|--4--------L--1--------L--|
--------------------------|--------------------------|
--------0--0--------0--0--|--------------------------|
--0--0--------0--0--------|--------3--3--------3--3--|
--------------------------|--3--3--------3--3--------|
--------------------------|--------------------------|


  E  E  E  E  E  E  E  E     E  E  E  E  H           Q    Q    E  Q.      
--------------------------|-----------------------|----------------------|
--4--L-----L--6--L--7--L--|--6--------L--3--------|------------1--3------|
--------------------------|-----------------------|--0----3-------L------|
--------1--1--------------|--------0--0-----------|----------------------|
--1--1--------------6--6--|--0--0--------0--------|--1----1--------------|
--------------6--6--------|-----------------------|--3-------------------|


  Q    Q    E  Q.        Q    Q    E  E  Q       Q    Q    Q    Q     
----------------------|--1--------------------|----------------------|
--3-------------------|-------1---------------|----------------------|
--3----3----0--3------|-------3----3--0--3----|--3---------3---------|
--0-------------------|-----------------------|----------------------|
--1-------------------|--1--------------------|--4----1---------1----|
-------3-------L------|--1--------------------|----------------------|


  Q    Q    E  Q.        Q    Q    E  Q.        Q    Q    E  E  Q     
----------------------|----------------------|--1--------------------|
------------1--3------|--3-------------------|-------1---------------|
--0----3-------L------|--3----3----0--3------|-------3----3--0--3----|
----------------------|--0-------------------|-----------------------|
--1----1--------------|--1-------------------|--1--------------------|
--3-------------------|-------3-------L------|--1--------------------|


  Q    Q    Q    Q      
----------------------||
----------------------||
--3---------3---------||
----------------------||
--4----1---------1----||
----------------------||




Duration Legend
---------------
W - whole
H - half
Q - quarter
E - 8th
S - 16th
T - 32nd
X - 64th
. - note dotted
|-n-|  - n-tuplets


Tablature Legend
----------------
L - tied note
x - dead note
g - grace note
(n) - ghost note
> - accentuded note
NH - natural harmonic
AH - artificial harmonic
TH - tapped harmonic
SH - semi harmonic
PH - pitch harmonic
h - hammer on
p - pull off
b - bend
br - bendRelease
pb - preBend
pbr - preBendRelease
brb - bendReleaseBend
\n/ - tremolo bar dip
\n - tremolo bar dive
-/n - tremolo bar Release up
/n\ - tremolo bar inverted dip
/n - tremolo bar return
-\n - tremolo bar Release down
S - shift slide
s - legato slide
/ -  slide into from below or out of upwards
\ -  slide into from above or out of downwards
~ - vibrato
W - wide vibrato
tr - trill
TP - tremolo picking
T - tapping
S - slap
P - pop
< - fade in
^ - brush up
v - brush down
Login or Register to remove this ad.

1 comment on Paula's Theme

c'est magnifique

5

c'est magnifique