Login or Register to remove this ad.

Humoresque of a Little Dog (Earthbound) Guitar Tab

Submitted: Oct 13, 2010 by Kabukibear

5
Average: 5 (6 votes)
Download | Listen
Game: Earthbound
Composer(s): Hirokazu Tanaka, Keiichi Suzuki
Style: Arrangement, Fingerstyle, Percussion

This song is also called Buy Something Will Ya?

AutoScroll: Slow | Medium | Fast
Humoresque of a Little Dog                            
(Buy Something Will Ya?)
~Earthbound~
Composed by: Hirokazu Tanaka, Keiichi Suzuki
Arranged by: Justin Lincoln

5th string to G
Fast shuffle feel


     Slowly
               ^            ^                         ^         ^            
     Q    Q    Q    Q       E  E  E  E  E  E  Q       Q    Q    E  E  E  E   
E||--5----5----7----5----|--3--2--3--5--L--3--0----|------------3-----------|
B||--6----5----4---------|--3----------------------|--3----3----0--4--3-----|
G||----------------------|--0-----------2----------|--2---------0--------5--|
D||--3---------4---------|-------------------------|--3---------------------|
G||----------------------|-------------------------|------------------------|
E||----------------------|-------------------------|------------------------|

                      Play near bridge
                      BPM=145
  W                   E  E  E  E  E  E  E  E     E  E  E  E  E  E  E  E   
-------------------|--------3--------3--------|--3--------3--1--0--------|
-------------------|-----0--------0--------0--|--------0-----------4--3--|
--L----------------|--3--------3--------3-----|-----3--------------------|
-------------------|--------------0-----------|--------------------------|
--5----------------|--0-----------------------|--0-----------2-----4-----|
-------------------|--------------------------|--------------------------|


  Q    E  E  E  E  E  E     E  E  E  E  E  E  Q       E  E  E  E  E  E  E  E   
----------------0--8--0--|--6--0--5--0-------------|-----7--6--7--5--3--L--7--|
----------3--4-----------|--------------4--5-------|--------------------------|
--5----5-----------------|--------------------5----|--------------------------|
-------------------------|-------------------------|--------------0-----------|
--5----------0-----------|--5-----------4----------|--0-----------------------|
-------------------------|--------------------5----|--------------------------|


  E  E  E  E  E  E  E  E     Q    Q    Q    Q       E  E  E  E  Q     Q     
--6--7--5--3-----5--3--5--|--7----8--------------|-------------------------|
--------------------------|------------7----8----|-------------------------|
--------------------------|----------------------|--8--9--8--9-------------|
--------------0-----------|----------------------|--------------9----10----|
--0-----------------------|--5-------------------|-------------------------|
--------------------------|----------------------|-------------------------|


  E  E  E  E  E  E  E  E     E  E  E  E  E  E  E  E     Q    E  E  E  E  E  E   
--------------------3-----|--1-----0-----------0-----|----------------0--8--0--|
-----------0--3--0-----0--|-----0-----0--3--4-----0--|----------3--4-----------|
--0-----3-----------------|--------------------------|--5----5-----------------|
-----4--------0-----------|--------------0-----------|-------------------------|
--0-----------------------|--0-----------------------|--5----------0-----------|
--------------------------|--------------------------|-------------------------|


  E  E  E  E  Q    Q       Q    Q    Q    Q       E  E  E  E  E  E  Q     
--6--0--5--0--3----0----|--5----5----7----5----|--3--2--3--5-----3--0----|
------------------------|--6----5----4----4----|--3-----3-----2-----2----|
------------------------|----------------------|--0-----0-----2-----2----|
--------------0----2----|--3----3----4----4----|-------------------------|
--5---------------------|----------------------|-------------------------|
------------------------|----------------------|-------------------------|

                                                 Play over sound hole
  Q    Q    E  E  Q       Q    Q    Q    Q       Q    Q    Q    Q     
------------3----------|----------------------|-------0---------3----|
--3----3----0--4--3----|----------------------|-------4---------3----|
--2----2----0-----0----|--5----4----5---------|-------5---------6----|
--3----3---------------|-------0--------------|----------------------|
------------0-----0----|--5----0----5---------|--5---------0---------|
-----------------------|----------------------|----------------------|


  Q    E  E  Q    Q       Q    Q    Q    Q       Q    H.            
----------0-------3----|-------0--------------|--------------------|
-------4----------3----|-------4---------3----|-------0------------|
-------5----------6----|-------5---------3----|--5-----------------|
-----------------------|----------------------|--7----6------------|
--5----------0---------|--5---------0---------|--5----7------------|
-----------------------|----------------------|--------------------|


  E  E  E  E  E  E  E  E     E  E  E  E  E  E  E  E     Q    E  E  E  E  Q     
--------3--------3--------|--3--------3--1--0--------|----------------0--8----|
-----0--------0--------0--|--------0-----------4--3--|----------3--4----------|
--3--------3--------3-----|-----3--------------------|--5----5----------------|
--------------0-----------|--------------------------|-------5----------------|
--0-----------------------|--0-----------2-----4-----|--5----------0----------|
--------------------------|--------------------------|------------------------|


  Q    Q    E  E  Q       E  E  E  E  E  E  E  E     E  E  E  E  E  E  E  E   
--6----5---------------|-----7--6--7--5--3-----7--|--6--7--5--3--L--5--3--5--|
--5----5----4--5--1----|-----------------3--L-----|--------------------------|
--5----5---------------|-----7--6--7--------------|--0-----------------------|
-----------------------|--------------0-----------|--------------0-----------|
--5----5----4-----2----|--0-----------------------|--------------------------|
-----------------------|--------------------------|--------------------------|


  Q    Q    Q     Q       E    E  E    E  Q     Q     
--7----8---------------|-----------------------------|
------------7-----8----|-----------------------------|
------------9----10----|--8S---9--8S---9-------------|
-----------------------|--9S--10--9S--10--9----10----|
--5--------------------|-----------------------------|
-----------------------|------------------7-----8----|


  E  E  E  E  E  E  E  E     E  E  E  E  E  E  E  E     Q    E  E  E  E  E  E   
--------------------3-----|--1-----0-----------0-----|----------------0--8--0--|
-----------0--3--0-----0--|-----0-----0--3--4-----0--|----------3--4-----------|
--0-----3-----------------|--------------------------|--5----5-----------------|
-----4--------0-----------|--------------3-----------|-------------------------|
--0-----------------------|--0-----------------------|--5----------0-----------|
--------------------------|--------------------------|-------------------------|


  Q    Q    Q    Q       Q    Q    Q    Q       E  E  E  E  E  E  Q     
--6----5----3----0----|--5----5----7----5----|--3--2--3--5-----3--0----|
--5----5----3----1----|--6----5----4----4----|--3-----3-----2-----2----|
----------------------|----------------------|--0-----0-----2-----2----|
------------0----2----|--3----3----4----4----|-------------------------|
--5----5--------------|----------------------|-------------------------|
----------------------|----------------------|-------------------------|


                                                   ^          ^                
  Q    Q    E  E  E  E     Q    Q    Q    Q        E   E   E  E  E   E   Q     
-------0----3-----0-----|-----------------------|--8----------8--L------------|
--3------------4--------|-------4----3----------|--8--12--11--8--L--12--11----|
--2----2-------------5--|-------4----3----------|--8----------8--L------------|
--0----0----------------|-----------------------|-----------------------------|
------------0-----------|--5----4----3----3/----|--8----------8--L------------|
------------------------|-----------------------|-----------------------------|


  ^          ^                   ^           ^                
  E   E   E  E  E   E   Q        E   E   E   E  E   E   Q     
--8----------8--L------------|--10----------10--L------------|
--8--12--11--8--L--12--11----|--10--14--13--10--L--14--13----|
--8----------8--L------------|--10----------10--L------------|
-----------------------------|-------------------------------|
--8----------8--L------------|--10----------10--L------------|
-----------------------------|-------------------------------|


   ^           ^                  ^          ^                  
   E   E   E   E  E   E   Q       E   E   E  E  E   E   E   E   
--10----------10--L------------|--8----------8--L----------11--|
--10--14--13--10--L--14--13----|--8--12--11--8--L--12--11------|
--10----------10--L------------|--8----------8--L--------------|
-------------------------------|-------------------------------|
--10----------10--L------------|--8----------8--L--------------|
-------------------------------|-------------------------------|


   ^           ^       ^   v   ^     ^         ^                
   E   E   E   E   E   E   E   E     E   E  E  E  E   E  E  E   
--13----------13---L--13--13--13--|--6---------6--L---------9--|
--13--17---L--13---L--13--13--13--|--6--10--9--6--L--10--9-----|
--13----------13---L--13--13--13--|--6---------6--L------------|
----------------------------------|----------------------------|
--13----------13---L--13--13--13--|--6---------6--L------------|
----------------------------------|----------------------------|


   ^           ^       ^   v                                 
   E   E   E   E   E   E   E  E      E  E  E  E  Q    E  E   
--11----------11---L--11--11-----|--------------------------|
--11--14---L--11---L--11--11--8--|---9--8--6-----6----8--9--|
--11----------11---L--11--11-----|------------8-------------|
---------------------------------|--------------------0-----|
--11----------11---L--11--11-----|--10----------------------|
---------------------------------|---------8-----6----------|


                        |-3-|                      |--3--|   
   E  E  E   E  Q    E  S S S     E  E  E  E  Q    E  E  E   
------------------------------|-----------------------------|
--11--9--8--11------------6-8-|---9--8--6----------------6--|
----------------8----0--------|------------8--7----7--8-----|
---------8--------------------|---------6-----8----0--------|
---8--------------------------|--10-------------------------|
----------------8-------------|-----------------------------|


  E  E  E  E  E  E  E  E      E   E   E  E  Q    E  E   
--------------------0--6--|---8------------------6--8--|
--6--------6--6--8--9--6--|---9--11---9--8--9----8--9--|
-----8--8-----------------|----------10--8--7----------|
--------------------------|----------------------0-----|
--8-----6-----5-----0-----|--10------------------------|
--------------------------|-----------8-----6----------|


                                                                    ^         
                        |--3-|                                                
   E  E  E   E  Q    E  S S  S     Q    Q    Q    Q       H         H         
--10--8--6--10-----------------|---8-------------------|-----------10--------|
--11--9--8--11--8---------9-11-|--------6--------------|------------7--------|
---0------------9--------------|------------------7----|--8---------7--------|
---------0---------------------|--------6----8----0----|------------7--------|
---------------------9---------|--10-------------------|--8---------7--------|
----------------8--------------|-----------------------|---------------------|


  E  E  E  E  E  E  E  E     E  E  E  E  E  E  E  E     Q    E  E  E  E  E  E   
--------3--------3--------|--3--------3--1--0--------|----------------0--8--0--|
-----0--------0--------0--|--------0-----------4--3--|----------3--4-----------|
--3--------3--------3-----|-----3--------------------|--5----5-----------------|
--------------------------|--------------------------|-------------------------|
--0-----------0-----------|--0-----------2-----4-----|--5----------0-----------|
--------------------------|--------------------------|-------------------------|


  E  E  E  E  E  E  Q       E  E  E  E  E  E  E  E     E  E  E  E  E  E  E  E   
--6--0--5--0-------------|-----7--6--7--5--3--L--7--|--6--7--5--3-----5--3--5--|
--------------4--5-------|--------------------------|--------------------------|
--------------------5----|--------------------------|--------------------------|
-------------------------|--------------0-----------|--------------0-----------|
--5-----5-----4----------|--0-----------------------|--0-----------------------|
--------------------5----|--------------------------|--------------------------|

                 (x = Tap guitar body)
  Q    Q    Q    Q       E  E  E  E   Q     Q       E  E  E  E  E  E  E  E   
--7----8--------------|--7--8--7--8--11----12----|--------------------3-----|
------------7----8----|--------------------------|-----------0--3--0-----0--|
----------------------|--8--9--8--9--------------|--0-----3-----------------|
----------------------|---------------9----10----|-----4--------0-----------|
--5--------------x----|--------x------------x----|--0-----------------------|
----------------------|--------------------------|--------------------------|


  E  E  E  E  E  E  E  E     Q    E  E  E  E  E  E     E  E  E  E  Q    Q     
--1-----0-----------0-----|----------------0--8--0--|--6--0--5--0--3----0----|
-----0-----0--3--4-----0--|----------3--4-----------|------------------------|
--------------------------|--5----5-----------------|------------------------|
--------------0-----------|-------------------------|--------------0----2----|
--0-----------------------|--5----------0-----------|--5-----5---------------|
--------------------------|-------------------------|------------------------|


  Q    Q    Q    Q       E  E  E  E  E  E  Q       Q    Q    E  E  Q     
--5----5----7----5----|--3--2--3--5-----3--0----|------------3----------|
--6----5----4----4----|--3-----3-----2-----2----|--3----3----0--4--3----|
----------------------|--0-----0-----2-----2----|--2----2----0-----0----|
--3----3----4----4----|-------------------------|--3----3---------------|
----------------------|-------------------------|------------0-----0----|
----------------------|-------------------------|-----------------------|


                                                              ^  v     
  Q    Q    Q    Q       Q    Q    E  E  Q       Q    Q    E  E  Q     
----------------------|------------3----------|------------0--0--0----|
----------------------|--3----3----0--4--3----|-------3----2--2--2----|
--8----6----5---------|--2----2----0-----0----|--5---------2--2--2----|
-----------------6----|--3----3---------------|-----------------------|
--8----6----5---------|------------0-----0----|--5----4----2----------|
-----------------4----|-----------------------|-----------------------|


                                     ^                              
  Q    Q    E  E  E  E     Q    Q    H           W                  
-------0----3-----0-----|------------8--------|-------------------||
--3----3-------3--------|------------5--------|-------------------||
--2----2-------------5--|--L---------5--------|-------------------||
--0----0----------------|------------5--------|-------------------||
------------0-----4--5--|--L---------5--------|--5----------------||
------------------------|---------------------|-------------------||




Duration Legend
---------------
W - whole
H - half
Q - quarter
E - 8th
S - 16th
T - 32nd
X - 64th
. - note dotted
|-n-|  - n-tuplets


Tablature Legend
----------------
L - tied note
x - tap body
S - slide
^ - brush up
v - brush down
Login or Register to remove this ad.

4 comments on Humoresque of a Little Dog

Now I REALLY want you to

5

Now I REALLY want you to record it

(No subject)

That middle section is pretty

5

That middle section is pretty brutal for me. Should most of the bass notes be muted like they are in the midi?

Up to you really. If you want

Up to you really. If you want it to sound closer to the real thing then yeah. They sound like that on the midi because they're in the same voicing as the melody so are 8th notes and I didn't add any auto-ring to the midi.