Franky (Earthbound) Bass/Guitar Tab

Submitted: Jan 30, 2011 by RexLeRouge

5
Average: 5 (1 vote)
Download | Listen
Game: Earthbound
Composer(s): Hirokazu Tanaka, Keiichi Suzuki
Style: 2 or more instruments, Transcription

AutoScroll: Slow | Medium | Fast
                                    Franky                                      


Gtr
     H        E  E  E  E       E  E  E  E  E  E  E  E   
E||-----------------------||---5--5--5--5--5-----------|
B||-----------------5--7--||---5--5--5--5--5--7--5--7--|
G||--------------6--------||*--------------------------|
D||-----------------------||*--------------------------|
A||-----------------------||---------------------------|
E||-----------------------||---------------------------|


  E  E  E  E  E  E  E  E     E  E  E  E  E  E  E  E     E  E   H.            
--------------------------|--5-----------5-----------|-----8b--L------------|
--5--5--5--5--5--7--5--7--|--5--7--5--7--5--7--5--7--|----------------------|
--5--5--5--5--5-----------|--------------------------|----------------------|
--------------------------|--------------------------|----------------------|
--------------------------|--------------------------|----------------------|
--------------------------|--------------------------|----------------------|


  Q    Q     Q    Q        E  E  Q     Q    Q      
--5----------5----------|-----5--------5----------|
-------8b---------8b----|--------8b---------8b----|
------------------------|-------------------------|
------------------------|-------------------------|
------------------------|-------------------------|
------------------------|-------------------------|


     E     E     E  E     E     E  E   E     E  E   E  E  E  E  E  E   
------------------------------------------|-----8---------------------|
--9g10--9g10--9g10--8--9g10--9g10--8--10--|--------10--8--------------|
------------------------------------------|---------------9--7--5-----|
------------------------------------------|------------------------7--|
------------------------------------------|---------------------------|
------------------------------------------|---------------------------|


  Q     Q     E   E   E  E     E  E  E  E  E  E  E  E   
----------------------------|--------------------------|
----------------------------|--------------------------|
--5b----5b----5b--5b--5--2--|--------------------------|
----------------------------|-----7--5-----------------|
----------------------------|-----------7--6--5--------|
----------------------------|--------------------8--5--|


  E  E  E  E  E  E  E  E     E  Q    Q    Q.        E  E  E  E  E  E  E  E   
-----------5--------------|----------------------|--------------------------|
--------5-----8--5--------|----------------------|--------------------------|
-----7--------------7--5--|----------------------|--------------------------|
--------------------------|--7-------------------|--------------------------|
--------------------------|----------7----L------|--7--7--9--7--7--7--9--7--|
--------------------------|----------------------|--5--5--5--5--5--5--5--5--|


  E  E  E  E   E  E  E  E     E  E  E  E  E  E  E  E   
---------------------------|--------------------------|
---------------------------|--------------------------|
---------------------------|--------------------------|
---------------------------|--------------------------|
--7--7--9--7--10--7--9--7--|--7--7--9--7--7--7--9--7--|
--5--5--5--5---5--5--5--5--|--5--5--5--5--5--5--5--5--|


  E  E  E  E   E  E  E  E     E  E  E  E  E  E  E  E   
---------------------------|--------------------------|
---------------------------|--------------------------|
---------------------------|--------------------------|
---------------------------|--7--7--9--7--7--7--9--7--|
--7--7--9--7--10--7--9--7--|--5--5--5--5--5--5--5--5--|
--5--5--5--5---5--5--5--5--|--------------------------|


  E  E  E  E   E  E  E  E     E  E  E  E  E  E  E  E   
---------------------------|--------------------------|
---------------------------|--------------------------|
---------------------------|--------------------------|
--7--7--9--7--10--7--9--7--|--------------------------|
--5--5--5--5---5--5--5--5--|--7--7--9--7--7--7--9--7--|
---------------------------|--5--5--5--5--5--5--5--5--|


  E  E  E  E   E  E  E  E     E  E   E  E  E  E   E  E   
---------------------------|----------------------------|
---------------------------|----------------------------|
---------------------------|----------------------------|
---------------------------|--9--9--11--9--9--9--11--9--|
--7--7--9--7--10--7--9--7--|--7--7---7--7--7--7---7--7--|
--5--5--5--5---5--5--5--5--|----------------------------|


  E  E  E  E  E  E  E  E     E  E  E  E  E  E  E  E   
--------------------------|--------------------------|
--------------------------|--------------------------|
--------------------------|--------------------------|
--7--7--9--7--7--7--9--7--|--------------------------|
--5--5--5--5--5--5--5--5--|--7--7--9--7--7--7--9--7--|
--------------------------|--5--5--5--5--5--5--5--5--|


  E  E  E  E  E  E  E  E  99x
---------------------------||
--------------------5--7---||
-----------------6--------*||
-----9--9--9--9-----------*||
-----7--7--7--7------------||
---------------------------||


Bass
               Q    H.              Q    H.              Q    Q    H          
G||-------||---------------------|--------------------|----------------------|
D||-------||*--------------------|--------------------|----------------------|
A||-------||*--------------------|--5-----------------|----------------------|
E||-------||---5-----------------|--------------------|--5---------5\--------|


  E  E  E  E  E  E  E  E     E  E  E  E  E  E  E  E   
--------------------------|--------------------4-----|
--------------------------|--------4--4--7--7-----7--|
-----7--7--7--7--7--7--7--|--5--5--------------------|
--------------------------|--------------------------|


  E  E  E  E  E  E  E  E     E  E  E  E  E  E  E  E   
--------------------4-----|--------------------------|
--------4--4--7--7-----7--|--------------------4-----|
--5--5--------------------|--------4--4--7--7-----7--|
--------------------------|--5--5--------------------|


  E  E  E  E  E  E  E  E     E  E  E  E  E  E  E  E   
--------------------------|--------------------6-----|
--------------------4-----|--------6--6--9--9-----9--|
--------4--4--7--7-----7--|--7--7--------------------|
--5--5--------------------|--------------------------|


  E  E  E  E  E  E  E  E     E  E  E  E  E  E  E  E   
--------------------4-----|--------------------------|
--------4--4--7--7-----7--|--------------------------|
--5--5--------------------|--------4--4--5--5--6--6--|
--------------------------|--5--5--------------------|


  E  E  E  E  E  E  E  E     E  E  E  E  E  E  E  E   
--------------------------|--------------------------|
--------------------------|--------------------------|
-----7--7--7--7--7--7--7--|--------------7--7--9--9--|
--------------------------|--5--5--9--9--------------|


  E  E  E  E  E  E  E  E     E  E  E  E  E  E  E  E   
--------------------------|--------------------------|
--7--7--------------------|--------------------------|
--------9--9--7--7--------|--------------7--7--9--9--|
--------------------9--9--|--5--5--9--9--------------|


  E  E  E  E  E  E  E  E     E  E  E  E  E  E  E  E   
--------------------------|--------------------------|
--7--7--------------------|--------------------------|
--------9--9--7--7--------|--5--5--------------------|
--------------------9--9--|--------2--2--3--3--4--4--|


  E  E  E  E  E  E  E  E     E  E  E  E  E  E  E  E   
--------------------------|--------------------------|
--------------------------|--------------------------|
--------2--2--4--4--5--5--|--------------7--7--9--9--|
--5--5--------------------|--5--5--9--9--------------|


   E   E  E  E  E  E  E  E     E  E  E  E  E  E  E  E   
----------------------------|--------------------------|
----------------------------|--------6--6--7--7--8--9--|
--10--10--9--9--7--7--------|--7--7--------------------|
----------------------9--9--|--------------------------|


  E  E  E  E  E  E  E  E     E  E  E  E  E  E  E  E   
--------------------------|--------------------------|
--------4--4--5--5--6--7--|--7--7--5--5--4--4--3--3--|
--5--5--------------------|--------------------------|
--------------------------|--------------------------|


  E  E  E  E  Q    Q    99x
-------------------------||
------------------------*||
-----7--7--7--7---------*||
-------------------------||




Duration Legend
---------------
W - whole
H - half
Q - quarter
E - 8th
S - 16th
T - 32nd
X - 64th
. - note dotted
|-n-|  - n-tuplets


Tablature Legend
----------------
L - tied note
x - dead note
g - grace note
(n) - ghost note
> - accentuded note
NH - natural harmonic
AH - artificial harmonic
TH - tapped harmonic
SH - semi harmonic
PH - pitch harmonic
h - hammer on
p - pull off
b - bend
br - bendRelease
pb - preBend
pbr - preBendRelease
brb - bendReleaseBend
\n/ - tremolo bar dip
\n - tremolo bar dive
-/n - tremolo bar Release up
/n\ - tremolo bar inverted dip
/n - tremolo bar return
-\n - tremolo bar Release down
S - shift slide
s - legato slide
/ -  slide into from below or out of upwards
\ -  slide into from above or out of downwards
~ - vibrato
W - wide vibrato
tr - trill
TP - tremolo picking
T - tapping
S - slap
P - pop
< - fade in
^ - brush up
v - brush down
Login or Register to remove this ad.