Fourside (Earthbound) Bass Tab

Submitted: Jun 01, 2009 by BooDoo

0
Download | Listen
Game: Earthbound
Composer(s): Hirokazu Tanaka, Keiichi Suzuki
Style: Transcription

AutoScroll: Slow | Medium | Fast
	"The Metropolis of Fourside"
	from Mother 2 / Earthbound

Composed by: HIP Tanaka
Tab by: Joel McCoy (BooDoo)

Tempo: Q ~= 86
Standard tuning

                                   Fourside                                     


                                                                        Mother 2
Bass



     E.  E.  H        E     E.   E.   H        E      E.   E.   H        E   
G||----------------------|------------------------|------------14--------L--|
D||----------7--------L--|-----------10--------L--|-------12----------------|
A||------5---------------|------10----------------|--10---------------------|
E||--3-------------------|--8---------------------|-------------------------|


   E.   E.   H        E      S  S S  E   E   S S E  S Q     
-------12---19--------L--|-----13---17--20-----------------|
--10---------------------|--12--------------16---0--0-0----|
-------------------------|---------------------------------|
-------------------------|---------------------------------|


     E.   E.   E  E.   E.   E      E.   E.   E  E.   E.  E   
|-------------14-----------12--|------------14--------------|
|*-------12-----------10-------|-------12-----------10------|
|*--10------------8------------|--10------------8--------8--|
|------------------------------|----------------------------|


   E.   E.   E   E.   E.   E      E.   E.   E   E.   E.   E   
--------------------------18--|-------14------------14-------|
------------14-------14-------|--12------------12------------|
-------14-------12------------|------------12------------12--|
--12--------------------------|------------------------------|


   E.   E.   E   Q     E   E      E.   E.  E  E.  E.  E   
------------------------------|--------------------------|
------------------------------|-------------------9------|
--12--------12--------10--12--|--14-----------7-------7--|
-------12-------10------------|-------14---7-------------|


  E.  E.  E   E.  E.   E      E.   E.   E  E.   E.   E   
--------------------------|------------14-----------12--|
----------9---------------|-------12-----------10-------|
------7-----------0-------|--10------------8------------|
--5----------10-------10--|-----------------------------|


   E.   E.   E  E.   E.  E      E.   E.   E  E.   E.   E   
------------14--------------|------------14-----------12--|
-------12-----------10------|-------12-----------10-------|
--10------------8--------8--|--10------------8------------|
----------------------------|-----------------------------|


   E.   E.   E  E.   E.  E      E.   E.   E  E.   E.   E   
------------14--------------|------------14-----------12--|
-------12-----------10------|-------12-----------10-------|
--10------------8--------8--|--10------------8------------|
----------------------------|-----------------------------|


   E.   E.   E  E.   E.  E      E.   E.   E   E.   E.   E   
------------14--------------|--------------------------18--|
-------12-----------10------|------------14-------14-------|
--10------------8--------8--|-------14-------12------------|
----------------------------|--12--------------------------|


   E.   E.   E   E.   E.   E      E.   E.   E   Q     E   E   
-------14------------14-------|------------------------------|
--12------------12------------|------------------------------|
------------12------------12--|--12--------12--------10--12--|
------------------------------|-------12-------10------------|


   E.   E.  E  E.  E.  E     E.  E.  E   E.   E.   E   
--------------------------|---------------------------|
-------------------9------|----------9----------------|
--14-----------7-------7--|------7-----------12-------|
-------14---7-------------|--5----------10--------10--|


   E.   E.   E  E.   E.   E      E.   E.   E  E.   E.  E   
------------14-----------12--|------------14--------------|
-------12-----------10-------|-------12-----------10------|
--10------------8------------|--10------------8-----------|
-----------------------------|----------------------------|


  S E  E.  E  E.  E.  E     S E  E.  E  S E  E.  E     E.  E.  E  E.  E.  E   
-------------------------|--------------------------|------------------------|
--9-9------9-------------|--9-9------9--9-9------9--|--9-------9-------------|
-------9------9-------9--|-------9-----------9------|------9------9-------9--|
------------------9------|--------------------------|-----------------9------|


  S E  E.  E  S E  E.  E     E.  E.  E  E.  E.  E   
--------------------------|------------------------|
--9-9------9--9-9------9--|--0-------0-------------|
-------9-----------9------|------0------0-------0--|
--------------------------|-----------------0------|


  E.   E.  E   E.   E.   E      E.   E.   E  E.  E.  E   
----------------------------|---------------------------|
--0--------0----------------|--------------------9------|
------12-----------12-------|-------12-------7-------7--|
--------------10--------10--|--10--------10-------------|


   E.   E.   E   E.   E.   E     S E  E.  E  S E  E.  E   
------------------------------|--------------------------|
----------------11------------|-----------------------5--|
--12--------12-------12-------|-------------------3------|
-------12-----------------12--|--1-1--0---2--1-1---------|


  E.  E.  E  S E  E.  E     E.  E.  E  E.  E.  E     E.  E.  E  Q    Q       
-------------------------|------------------------|------------------------||
-------------3-3---------|----------5--3----------|----------2--1----0----*||
------------------3------|------3----------3------|------3----------------*||
--1---0---1-----------2--|--1------------------1--|--1---------------------||




Duration Legend
---------------
W - whole
H - half
Q - quarter
E - 8th
S - 16th
T - 32nd
X - 64th
. - note dotted
|-n-|  - n-tuplets


Tablature Legend
----------------
L - tied note
Login or Register to remove this ad.