Login or Register to remove this ad.

Boy Meets Girl (Earthbound) Guitar Tab

Submitted: Feb 05, 2017 by Furious_Fries

0
Download | Listen
Game: Earthbound
Composer(s): Hirokazu Tanaka, Keiichi Suzuki
Style: Arrangement, Fingerstyle

This song is also called Twoson

AutoScroll: Slow | Medium | Fast
Boy Meets Girl (Twoson Theme)
Earthbound
Composed by Keiichi Suzuki
Tabbed by Furious_Fries

E|-3-------3-------3-------3-------|-3-------3-------3-------3-------|---------------------------|
B|-----3-------3-------3-------3---|-----3-------3-------3-------3---|-------------------0-------|
G|*4---------------------------4---|-5-----------5---2-----------2--*|--------------2--------0---|
D|*--------------------------------|--------------------------------*|---------0-----------------|
A|---------------------------------|---------------------------------|-2---2---------------------|
D|---------------------------------|---------------------------------|---------------------------|


E|---------------------------|---------------------------|------------------------|
B|--------------0----1---3---|---------------------------|------------------------|
G|---------------------------|---------------------------|------------------------|
D|---------2-----------------|-----------------------0---|-0----------------------|
A|-3---3---------------------|---------0----2----3-------|-----0------------------|
D|---------------------------|-5---5---------------------|----------4----0--------|


E|------3----2---2---3-------|-------------|---------0-----------------|-------------|
B|-3---------------------3---|-3------1----|-0---0--------3----1---0---|-0-----------|
G|*--------------------------|-------------|---------------------------|--------2----|
D|*--------------------------|-------------|-2-------------------------|-------------|
A|-------------------0---2---|-2------2----|-----2-------------0---2---|-2------2----|
D|-5---------5---5-----------|-------------|---------2----2------------|-------------|


E|------------------------|---------------------|------------------------|--------------------|
B|------0-----------------|------0---------3----|------0-----------------|----------0---------|
G|-0---------2---0---2----|-0---------2---------|-0---------2---0---2----|-0----2-------2-----|
D|-----------0-------0----|-2---------0----0----|-----------0-------0----|-2------------0-----|
A|-3----3-----------------|------3--------------|-3----3-----------------|------3-------------|
D|------------------------|---------------------|------------------------|--------------------|


E|------3----2---2---3-------|-------------|---------0-----------------|-------------|
B|-3---------------------3---|-3------1----|-0---0--------3----1---0---|-0-----------|
G|---------------------------|-------------|---------------------------|--------2----|
D|---------------------------|-------------|-2-------------------------|-------------|
A|-------------------0---2---|-2------2----|-----2-------------0---2---|-2------2----|
D|-5---------5---5-----------|-------------|---------2----2------------|-------------|


E|---------------------------|-----------------|---------------------------|-------------|
B|---------------------------|-0---------------|-0-------3----1---0--------|-------------|
G|-0----0---0---2----2---2---|-0----0----2-----|-0--------------------2----|-0-----------|
D|--------------0------------|-----------0-----|-----0---------------------|-------------|
A|-3-------------------------|------3----------|---------2-----------------|-------------|
D|---------------------------|-----------------|--------------2---2---4----|-5-----------|


E|-0----2---0---2---2---3---3---|-5----5---3--5--3--2---2---0---0---|----------0-------------------|
B|------------------------------|-----------------------------------|-3----3-------3---3---1---1---|
G|------------------------------|-----------------------------------|------------------------------|
D|------------------------------|-------------------------------2---|-0----0---0---0---0-----------|
A|------------------------------|-3----3---------3--3---3---3-------|------------------------------|
D|-2----2---2---2---4---4---5---|-----------------------------------|----------------------0---0---|


E|---------------------------|---------------------------|------------------------|
B|-0----0---1---0---0--------|-----------------------0---|------------------------|
G|----------------------2----|-0-------------0---2-------|-2---------2------------|
D|---------------------------|-----------2---------------|----------------2---2---|
A|---------------------------|---------------------------|-0----0----0----2---4---|
D|-5----5-------5---5---4----|-2----2--------2---4---5---|------------------------|


E|---------------------------|---------------------------|---------------------------------|
B|---------------------------|---------------------------|---------------------------------|
G|-0-------------------------|---------------------------|---------------------------------|
D|----------2---4--------4---|-2----2----4-----------4---|---------------------------------|
A|-5----5---0---5----5---0---|-5----5----5---5---5---5---|-----------------0---2---3---0---|
D|---------------------------|---------------------------|-0---2---4---0-------------------|


E|-3----3----3----3----|-3----3----3----3----|-10---10---10---10---|-----------------------------|
B|-3----3----3----3----|-3----3----3----3----|-10---10---10---10---|-----------------------------|
G|---------------------|---------------------|---------------------|----------------------------*|
D|---------------------|---------------------|---------------------|-2----0---------------------*|
A|---------------------|-0---------2---------|-10-------------10---|-----------3---2----0--------|
D|-5---------5----0----|---------------------|---------------------|-------------------------5---|


E|-3------|
B|-3------|
G|-4------|
D|--------|
A|--------|
D|-5------|
Login or Register to remove this ad.