Ads

Ending Theme (Dust: An Elysian Tail) Guitar Tab

Submitted: Sep 15, 2012 by viniciuscagnotto

4.666665
Average: 4.7 (3 votes)
Download | Listen
Game: Dust: An Elysian Tail
Composer(s): HyperDuck
Style: Transcription

AutoScroll: Slow | Medium | Fast
Ending Theme
Dust an Elysian Tail
HyperDuck Soundworks (http://hyperduck.co.uk/)
Vinicius Cagnotto
09/13/2013

This version only cover the main melody. Please listen to the original (piano) here:
http://grooveshark.com/#!/s/Ending+Theme/4OCzJw?src=5

Please comment. This is my first tab =]


e-------5-5---7-7-5----5----5----5----5----5-7-5------------------------------
B---5-7-----7----------------------------7-------7-5-5--7---------------------
G---------------------------------------------------------7---7---7---4-------
D-------------------------------------------------------------------------7---
A-----------------------------------------------------------------------------
E-----------------------------------------------------------------------------


e-------5-5---7-7-5----5----5----5----5----5-7-5------------------------------
B---5-7-----7----------------------------7-------7-5-5--7---------------------
G---------------------------------------------------------7---7---7---7---7---
D-----------------------------------------------------------------------------
A-----------------------------------------------------------------------------
E-----------------------------------------------------------------------------


e-------5-5---7-9-5----------------------5--------------------------------------------
B---5-7-----7------------------------5-7---5-5-----------5-7-5------------------------
G----------------------------------------------7-7-----7-------7-7--------------------
D-------------------------------------------------------------------------------------
A----------------------5----5----5------------------------------------5---5---5---5---
E-------------------------------------------------------------------------------------

Cello begins
                                            louder here
e---5---5-5--------------5---5-5--------------5---5-5-----
B-----7-----7--------------7-----7--------------7-----7---
G---------------------------------------------------------
D---------------------------------------------------------
A---------------------------------------------------------
E---------------------------------------------------------


e---5---5-5----5-----------------------
B-----7-----7----7-5---------5-5-------
G--------------------7-7---7-----7-7---
D--------------------------------------
A--------------------------------------
E--------------------------------------


e-------5-5---7-7-5--------------------5-7-5------------------------------
B---5-7-----7------------------------7-------7-5-5--7---------------------
G-----------------------------------------------------7-------------------
D-----------------------------------------------------------------7-9-7---
A----------------------5----5----5------------------------5---5-----------
E-------------------------------------------------------------------------


e-------5-5---7-9-5-------------------5-7-5-----------------------------------------
B---5-7-----7-----------------------7---------5------5-5-7-5------------------------
G-------------------------------------------7---7------------7-7----7---7---7---7---
D-----------------------------------------------------------------------------------
A----------------------5----5----5--------------------------------------------------
E-----------------------------------------------------------------------------------


octave up
e---17-14--17-17-14-----------17-14--17-17-14---
B-----------------------------------------------
G-----------------------------------------------
D-----------------------------------------------
A-----------------------------------------------
E-----------------------------------------------

e---17-14--17-17-14--17-17-14-19-17-17------
B--------------------------------------17---
G-------------------------------------------
D-------------------------------------------
A-------------------------------------------
E-------------------------------------------

e---17-14--17-17-14--17-14--------------17-14------------
B--------------------------17-15-15-----------17-15-15---
G--------------------------------------------------------
D--------------------------------------------------------
A--------------------------------------------------------
E--------------------------------------------------------


musicbox (final)
e------14-17-17-14-19-19-17---------14-17-19-17-14-------14------
B---17---------------------------------------------17-17----15---
G----------------------------------------------------------------
D----------------------------------------------------------------
A----------------------------------------------------------------
E----------------------------------------------------------------
Login or Register to remove this ad.

5 comments on Ending Theme

I'm not sure, but I think

I'm not sure, but I think this was the 5000th tab :-D

auriplane said I'm not sure,

auriplane said

I'm not sure, but I think this was the 5000th tab :-D

How do you even know these things @[email protected]?

Well, it says there's 5002

Well, it says there's 5002 tabs, so I went down to the 3rd one on the list ^-^;

woooooooooooooooooo!!!

woooooooooooooooooo!!!

Good

4

Good tab, but you should put in how long each note should be played it would make things a lot easier. Other than that, good tab :)