Login or Register to remove this ad.

Requiem (Dusk Maiden of Amnesia) Guitar Tab

Submitted: Sep 12, 2017 by danydi95

4
Average: 4 (1 vote)
Download | Listen
Game: Dusk Maiden of Amnesia
Composer(s): Keigo Hoashi, Ryuichi Takada
Style: Arrangement, Fingerstyle

AutoScroll: Slow | Medium | Fast
     E  E  E   E   E   E  E  E     E  E  E  E   E  E  E  E   
E||-----7-------------10-----7--|--L--------7---------------|
B||-----------10---L------------|-----8--------10--8--7--L--|
G||--9--------------------------|---------------------------|
D||-----------------------------|---------------------------|
A||--7-----7-------7------7-----|--7-----7------7-----7-----|
E||-----------------------------|---------------------------|


  E  E  E   E   E   E  E  E     E  E  E  E   Q    Q     
-----7-------------10-----7--|--L--------7-------------|
-----------10---L------------|-----8--------10---------|
--9--------------------------|-------------------------|
-----------------------------|-------------------------|
--7-----7-------7------7-----|--7-----7------7----7----|
-----------------------------|-------------------------|


  E  E  E   E  E   E   E  E     E  E  E  E   E  E  E  E   
-----7--L---------10---L--7--|--L--------7---------------|
-----------10----------------|-----8--------10--8--7-----|
--9--------------------------|---------------------------|
-----------------------------|---------------------------|
--7--L--7--------------------|--0-----0------------------|
---------------8---L---8-----|---------------7--L--7--L--|


  E  E  E   E  E   E   E  E     E  E  E  E   E   E   E  E   
-----7--L---------10---L--7--|--L--------7-----------------|
-----------10----------------|-----8--------10---L---L-----|
--9--------------------------|-----------------------------|
-----------------------------|-----------------------------|
--7--L--7--------------------|--0-----0--------------------|
---------------8---L---8-----|---------------7---L---7--L--|


  E  E  E  E  E  E  E  E     E  E  E  E  E  E  E  E   
--------------------------|--------------------------|
--------------------------|-----8--7--L--------------|
--9-----------------------|-----------------9--8-----|
--------------------------|--------------------------|
--7--L--7--L--------------|--0-----0-----------------|
--------------8--L--8--L--|--------------7--L--7--L--|


  E  E  E  E  E  E  E  E     E  E   E  E   E  E  E  E   
--------------------------|-----7---------10--8--7--8--|
--------------------------|--------10------------------|
--9-----------------------|--9-------------------------|
--------------------------|----------------------------|
--7--L--7--L--------------|--0--L---0--L---------------|
--------------8--L--8--L--|----------------7--L--7--L--|


  E  E  E   E   E  E  E  E     E  E  E  E  E  E  E   E   
--7-------------------------|---------------------------|
--------8--10--10-----7--L--|-----------------7--8--10--|
----------------------------|--9--L--L--L--9------------|
----------------0--L--0--L--|---------------------------|
----------------------------|--7--L--7--L--7-----7---L--|
--8--L--8---L---------------|---------------------------|


  E  E  E   E   E  E   E  E      E  E  E  E   E  E  E  E   
--7-------------------12-----|--10-----------10--8--7--8--|
--------8--10--10------------|----------------------------|
-----------------------------|----------------------------|
----------------0--L---0--L--|----------------------------|
-----------------------------|---7--L--7--L---7-----7--L--|
--8--L--8---L----------------|----------------------------|


  E  E  E   E   E  E   E   E      E   E   E   E  E  E  E   E   
--7-------------------14--15--|--14---------------------------|
-----8--8--10--10-------------|------15--12---L-----7--8--10--|
------------------------------|------------------9------------|
----------------0--L---0------|-------------------------------|
------------------------------|------------------7-----7---L--|
--8--L--8---L-----------------|--12------12-------------------|


  E  E  E   E   E  E  E  E     E  E  E  E  E  E  E   E   
--7-------------------------|---------------------------|
--------8--10--10-----7--L--|-----------------7--8--10--|
----------------------------|--9--L--L--L--9------------|
----------------0--L--0--L--|---------------------------|
----------------------------|--7--L--7--L--7-----7---L--|
--8--L--8---L---------------|---------------------------|


  E  E  E   E   E  E  E  E     E  E  E  E  E  E  E   E   
--7-------------------------|---------------------------|
--------8--10--10-----7--L--|-----------------7--8--10--|
----------------------------|--9--L--L--L--9------------|
----------------0--L--0-----|---------------------------|
----------------------------|--7--L--7--L--7-----7---L--|
--8--L--8---L---------------|---------------------------|


  E  E  E   E   E  E   E  E      E  E  E  E   E  E  E  E   
--7-------------------12-----|--10-----------10--8--7--8--|
--------8--10--10------------|----------------------------|
-----------------------------|----------------------------|
----------------0--L---0--L--|----------------------------|
-----------------------------|---7--L--7--L---7-----7--L--|
--8--L--8---L----------------|----------------------------|


  E  E  E   E   E  E   E   E      E   E   E   E  E  E  E   E   
--7-------------------14--15--|--14---------------------------|
--------8--10--10-------------|------15--12---------7--8--10--|
------------------------------|------------------9------------|
----------------0--L---0---L--|-------------------------------|
------------------------------|------------------7-----7---L--|
--8--L--8---L-----------------|--12------12---L---------------|


  E  E  E   E   E  E  E  E     E  E  E   E   E   E  E  E   
--7-------------------------|-----7-------------10-----7--|
--------8--10--10-----7--L--|-----------10---L------------|
----------------------------|--9--------------------------|
----------------0--L--0--L--|-----------------------------|
----------------------------|--7-----7-------7------7-----|
--8--L--8---L---------------|-----------------------------|


  E  E  E  E   E  E  E  E     E  E  E   E   E   E  E  E   
--L--------7---------------|-----7-------------10-----7--|
-----8--------10--8--7--L--|-----------10---L------------|
---------------------------|--9--------------------------|
---------------------------|-----------------------------|
--7-----7------7-----7-----|--7-----7-------7------7-----|
---------------------------|-----------------------------|


               ^                                                            
  E  E  E  E   H            H        E  E  Q       E  E  E  E  E  E  E  E   
--L--------7------------|-----------------------|-----------3--2-----------|
-----8--------10--------|---L-------------------|-----------------3--------|
---------------9--------|---L-----------0--2----|--4--2--4-----------------|
------------------------|------------4----------|--------------0-----5--4--|
--7-----7------7--------|---L-------------------|--3-----------------------|
------------------------|-----------------------|--------------------------|


  E  E  E  E  E  E  E  E     E  E  E  E  E  E  E  E   
-----5--3--2-----3--------|-----------3--2-----------|
--------------------3--5--|-----------------3--------|
--------------------------|-----2--4-----------------|
--------------0-----------|--------------0-----5--4--|
--------------------------|--3-----------------------|
--0-----------------------|--------------------------|


  E  E  E  E  E  E  E  E     E  E  E  E  E  E  E  E   
--------------------------|-----------3--2-----------|
--------------------3-----|-----------------3--------|
--------2--4--5--4-----4--|-----2--4-----------------|
-----5--5--5--5--5--5--5--|--------------0-----5--4--|
--------------------------|--3-----------------------|
--0--L--------------------|--------------------------|


  E  E  E  E  E  E  E  E     E  E  E  E  E  E  E  E   
-----5--3--2-----3--------|-----------3--2-----------|
--------------------3--5--|-----------------5--3--5--|
--------------------------|-----2--4-----------------|
--------------0-----------|--------------0-----------|
--------------------------|--3-----------------------|
--0--L--------------------|--------------------------|


  E  E  E  E  E  E  E  E     E  E  E  E  E  E  E  E   
--------------------------|--------------------------|
-----------3--------------|--------------------------|
-----4--2-----0-----------|--------------------------|
--------------0--4--2--0--|--------------------------|
--------------------------|--7--L--L--L--------------|
--0--L--------------------|--------------8--L--L--L--|


  E  E  E  E  E  E  E  E     E  E  E  E  E  E  E  E   
--------------------------|--------------------------|
--------------------------|--------------------------|
--------------------------|--9-----------------------|
--------------------------|--------------------------|
--0--L--L--L--------------|--7--L--7--L--------------|
--------------7--L--L--L--|--------------8--L--8--L--|


  E  E  E  E  E  E  E  E     E  E  E  E  E  E  E  E   
--------------------------|--------------------------|
-----8--7--L--------------|--------------------------|
-----------------9--8-----|--9-----------------------|
--------------------------|--------------------------|
--0-----0-----------------|--7--L--7--L--------------|
--------------7--L--7--L--|--------------8--L--8--L--|


  E  E   E  E   E  E  E  E     E  E  E   E   E  E  E  E   
-----7---------10--8--7--8--|--7-------------------------|
--------10------------------|--------8--10--10-----7--L--|
--9-------------------------|----------------------------|
----------------------------|----------------0--L--0--L--|
--0--L---0--L---------------|----------------------------|
----------------7--L--7--L--|--8--L--8---L---------------|


  E  E  E  E  E  E  E   E     E  E  E   E   E  E   E  E   
---------------------------|--7-------------------12-----|
-----------------7--8--10--|--------8--10--10------------|
--9--L--L--L--9------------|-----------------------------|
---------------------------|----------------0--L---0--L--|
--7--L--7--L--7-----7---L--|-----------------------------|
---------------------------|--8--L--8---L----------------|


   E  E  E  E   E  E  E  E     E  E  E   E   E  E   E   E   
--10-----------10--8--7--8--|--7-------------------14--15--|
----------------------------|-----8--8--10--10-------------|
----------------------------|------------------------------|
----------------------------|----------------0--L---0------|
---7--L--7--L---7-----7--L--|------------------------------|
----------------------------|--8--L--8---L-----------------|


   E   E   E   E  E  E  E   E     E  E  E   E   E  E  E  E   
--14---------------------------|--7-------------------------|
------15--12---L-----7--8--10--|--------8--10--10-----7--L--|
------------------9------------|----------------------------|
-------------------------------|----------------0--L--0--L--|
------------------7-----7---L--|----------------------------|
--12------12-------------------|--8--L--8---L---------------|


  E  E  E  E  E  E  E   E     E  E  E   E   E  E  E  E   
---------------------------|--7-------------------------|
-----------------7--8--10--|--------8--10--10-----7--L--|
--9--L--L--L--9------------|----------------------------|
---------------------------|----------------0--L--0--L--|
--7--L--7--L--7-----7---L--|----------------------------|
---------------------------|--8--L--8---L---------------|


  E  E  E  E  E  E  E   E     E  E  E   E   E  E   E  E   
---------------------------|--7-------------------12-----|
-----------------7--8--10--|--------8--10--10------------|
--9--L--L--L--9------------|-----------------------------|
---------------------------|----------------0--L---0--L--|
--7--L--7--L--7-----7---L--|-----------------------------|
---------------------------|--8--L--8---L----------------|


   E  E  E  E   E  E  E  E     E  E  E   E   E  E   E   E   
--10-----------10--8--7--8--|--7-------------------14--15--|
----------------------------|--------8--10--10-------------|
----------------------------|------------------------------|
----------------------------|----------------0--L---0---L--|
---7--L--7--L---7-----7--L--|------------------------------|
----------------------------|--8--L--8---L-----------------|


   E   E   E   E  E  E  E   E     E  E  E   E   E  E  E  E   
--14---------------------------|--7-------------------------|
------15--12---------7--8--10--|--------8--10--10-----7--L--|
------------------9------------|----------------------------|
-------------------------------|----------------0--L--0--L--|
------------------7-----7---L--|----------------------------|
--12------12---L---------------|--8--L--8---L---------------|


  W                   Q    Q    E  E  E  E     E  E  E  E  E  E  E  E   
-------------------|------------------------|--------------------------|
-------------------|------------------------|-----8--7-----------------|
--9----------------|--L---------9--7--9--7--|--9--------------------7--|
-------------------|------------------------|--------------0--L--L-----|
--7----------------|--L---------------------|--------------------------|
-------------------|------------------------|--8--L--L--L--------------|


  E   E  E  E  E  E  E  E     E  E  E  E  E  E  E  E   
---------------------------|--------------------------|
-----10--8--L--7--------5--|-----8--7--------------8--|
---------------9--7--9--7--|--9-----------------------|
---------------0-----------|--------------0--L--L-----|
--7------------------------|--------------------------|
---------------------------|--8--L--L--L--------------|


  E  E   E   E   E  E  E  E     E  E  E  E  E  E  E  E   
-----7--10---L------7--------|--------------------------|
----------------10--------8--|-----8--7-----------------|
-----------------9--7--9--7--|--9--------------------7--|
-----------------0-----------|--------------0--L--L-----|
--7--------------------------|--------------------------|
-----------------------------|--8--L--L--L--------------|


  E   E  E  E  E  E  E  E     E  E  E  E  E  E  E  E   
---------------------------|--------------------------|
-----10--8--L--7--------5--|-----8--7--------------8--|
---------------9--7--9--7--|--9-----------------------|
---------------0-----------|--------------0--L--L-----|
--7------------------------|--------------------------|
---------------------------|--8--L--L--L--------------|


  E  E   E   E   E  E  E  E     E  E  E   E  E   E   E  E   
-----7--10---L------7--------|-----7--L---------10---L--7--|
----------------10--------8--|-----------10----------------|
-----------------------------|--9--------------------------|
-----------------0--L--L-----|-----------------------------|
--7--------------------------|--7--L--7--------------------|
-----------------------------|---------------8---L---8-----|


  E  E  E  E   E  E  E  E     E  E  E   E  E   E   E  E   
--L--------7---------------|-----7--L---------10---L--7--|
-----8--------10--8--7-----|-----------10----------------|
---------------------------|--9--------------------------|
---------------------------|-----------------------------|
--0-----0------------------|--7--L--7--------------------|
---------------7--L--7--L--|---------------8---L---8-----|


  E  E  E  E   E   E   E  E     E  E  E   E   E   E  E  E   
--L--------7-----------------|-----7-------------10-----7--|
-----8--------10---L---L-----|-----------10---L------------|
-----------------------------|--9--------------------------|
-----------------------------|-----------------------------|
--0-----0--------------------|--7-----7-------7------7-----|
---------------7---L---7--L--|-----------------------------|


  E  E  E  E   E  E  E  E     E  E  E   E   E   E  E  E   
--L--------7---------------|-----7-------------10-----7--|
-----8--------10--8--7--L--|-----------10---L------------|
---------------------------|--9--------------------------|
---------------------------|-----------------------------|
--7-----7------7-----7-----|--7-----7-------7------7-----|
---------------------------|-----------------------------|


  E  E  E  E   Q    Q       E  E  E   E  E   E   E  E   
--L--------7-------------|-----7--L---------10---L--7--|
-----8--------10---------|-----------10----------------|
-------------------------|--9--------------------------|
-------------------------|-----------------------------|
--7-----7------7----7----|--7--L--7--------------------|
-------------------------|---------------8---L---8-----|


  E  E  E  E   E  E  E  E     E  E  E   E  E   E   E  E   
--L--------7---------------|-----7--L---------10---L--7--|
-----8--------10--8--7-----|-----------10----------------|
---------------------------|--9--------------------------|
---------------------------|-----------------------------|
--0-----0------------------|--7--L--7--------------------|
---------------7--L--7--L--|---------------8---L---8-----|


               ^                
  E  E  E  E   E   E   E   E    
--L--------7------------------||
-----8--------10---L---L---L--||
---------------9---L---L---L--||
------------------------------||
--0-----0---------------------||
---------------7---L----------||
Login or Register to remove this ad.