Akogare no Hinichijou (Durarara!!) Guitar Tab

Submitted: Apr 06, 2014 by JordanVS

4.4
Average: 4.4 (5 votes)
Download | Listen
Game: Durarara!!
Composer(s): Theatre Brook
Style: Arrangement, Fingerstyle, Natural harmonics

AutoScroll: Slow | Medium | Fast
Akogare no Hinichijou                                         
Durarara!!
Makoto Yoshimori
JordanVS                                                               

* 4/4 
* Tempo = 180

  1/8     4/4
     E       E  E  E  E  E  E  E  E     E  E  E  E  E  E  E  E     E  E  E  E  E  E  E  E   
E||--0--||---2--0-----0--2--0-----0--|--2--0-----0--2--0-----0--|--2--0-----0--2--0-----0--|
B||-----||---------4-----------4-----|--------4-----------4-----|--------4-----------4-----|
G||-----||*--------------------------|--------------------------|--------------------------|
D||-----||*--------------------------|--------------------------|--------------------------|
A||-----||---------------------------|--------------------------|--------------------------|
E||-----||---------------------------|--------------------------|--------------------------|


7/8                    3/4
  E  E  E  E  E  E  E     E  E  E  E  E  E     E  E  E  E  E  E     E  E  E  E  E  E   
--2--0-----0-----------|--5--------------5--|--7--------0--4--7--|--9--------0--5--9--|
--------4-----3--2--0--|--------------5-----|--------0-----------|--------------------|
-----------------------|-----------6--------|--------------------|--------------------|
-----------------------|--------7-----------|-----6--------------|--------7-----------|
-----------------------|-----7--------------|--7-----------------|--0--7--------------|
-----------------------|--5-----------------|--------------------|--------------------|


                                                                 7/8                NH      NH  
   E  E  E  E  E   E     E  E  E  E  E  E     E  E  E  E  E  E      E  E   E   E    E  E    E   
--10-----------7--10--|--9-----------5--9--|--7--------0--4--7--|--12-----12--12--<>5--0--<>5--|
------------7---------|-----------5--------|--------0-----------|------------------------------|
---------7------------|--------6-----------|--------------------|------9-----------------------|
---0--9---------------|-----7--------------|-----6--------------|------------------------------|
----------------------|--7-----------------|--7-----------------|------------------------------|
----------------------|--------------------|--------------------|------------------------------|

4/4
   E   E   E   E   E   E   E   E      E   E   E   E   E   E   E   E   
--14--12--11--12--14--12--11--12--|--14--12--11--12--14--12--11--12--|
----------------------------------|----------------------------------|
----------------------------------|----------------------------------|
----------------------------------|----------------------------------|
----------------------------------|----------------------------------|
----------------------------------|----------------------------------|

                                                                   6/8
   E   E   E   E   E   E   E   E      E   E   E   E   E  E  E   E     E  E  E  E  E  E   
--14--12--11--12--14--12--11--12--|--14--12--11--12--10--9--7------|--------0-----------|
----------------------------------|----------------------------10--|--9--7-----3--2--0--|
----------------------------------|--------------------------------|--------------------|
----------------------------------|--------------------------------|--------------------|
----------------------------------|--------------------------------|--------------------|
----------------------------------|--------------------------------|--------------------|

3/4
  E  E  E  E  E  E     E  E  E  E  E   E     E  E  E  E   E   E      E  E  E  E  E   E   
--5--------------9--|--7--------0-----10--|--9---------------12--|--10-----------7--10--|
--------------5-----|--------0-----9------|--------------10------|------------7---------|
-----------6--------|---------------------|-----------9----------|---------7------------|
--------7-----------|-----6---------------|--------7-------------|---0--9---------------|
-----7--------------|--7------------------|--0--7----------------|----------------------|
--5-----------------|---------------------|----------------------|----------------------|

                                                              1.                  2.
  E  E  E  E  E  E     E  E  E  E  E  E     E  E  E  E  E  E     Q    H             Q    Q    Q     
--9-----------5--9--|--7--------0--4--7--|--7--------------7--|--5--------------||--5--------------|
-----------5--------|--------0-----------|--------------7-----|-----------------||------------2----|
--------6-----------|--------------------|-----------7--------|-------2--------*||-------2---------|
-----7--------------|-----6--------------|-----4--7-----------|-------2--------*||-------2---------|
--7-----------------|--7-----------------|--0-----------------|--0--------------||--0--------------|
--------------------|--------------------|--------------------|-----------------||-----------------|

                                             1.2.3
    S  S E  E  E  E  E     Q    E  E  E  E     S  S  E  E  E  E  E     S  S E  Q    Q     4x
|-----------------0-----|-------------0-----|-----------------0-----|---------------------||
|---0h-2-0-----0--0--0--|--2----1--2--------|--0h-2p-0-----0--0--3--|--3h-5-3--2----------||
|*----------3-----------|--2-------------2--|-----------3-----------|--------------------*||
|*--2-------2-----2-----|-------------------|--2--------2-----2-----|----------2----2----*||
|-----------------------|--0----0-----0-----|-----------------------|--0------------------||
|-----------------------|-------------------|-----------------------|---------------------||

4.                                      7/8                      3/4
  S  S E  E  E  E  E     Q    H            E  E  E   E  E  E  E     E  E  E  E  E  E   
-------------0--------|----------------|--10--9--7------------0--|--------------------|
--0h-2-0--------2--0--|----------------|------------10--9--7-----|--3--2--0-----------|
----------3-----------|----------------|-------------------------|-----------2--1-----|
--2-------2-----2-----|--2-------------|-------------------------|-----------------4--|
----------------------|-------2--------|-------------------------|--------------------|
----------------------|--0----0--------|-------------------------|--------------------|


  Q    H           H        E  E     E  E  E  E  E  E     Q    H           Q    H         
-------0--------|--2--------0-----|--------------------|----------------|-------0--------|
-------0--------|--2-----------3--|--2--0--------------|-------3--------|-------0--------|
-------1--------|--2--------------|--------2--1--------|-------2--------|-------1--------|
--2-------------|-----------------|--------------4--2--|-------4--------|--2-------------|
-------2--------|-----------------|--------------------|--5-------------|----------------|
----------------|--2--------------|--------------------|----------------|----------------|

7/8                      3/4                   4/4
   E  E  E   E  E  E  E     E  E  E  E  E  E     H        E  E  E  E     E  E  E  E  E  E  E  E   
--10--9--7------------0--|--------------------|-----------2--0-----0--|--2--0-----0--2--0-----0--|
------------10--9--7-----|--3--2--0-----------|-----------------4-----|--------4-----------4-----|
-------------------------|-----------2--1-----|-----------------------|--------------------------|
-------------------------|-----------------4--|--2--------------------|--------------------------|
-------------------------|--------------------|-----------------------|--------------------------|
-------------------------|--------------------|-----------------------|--------------------------|


  E  E  E  E  E  E  E  E     E  E  E  E  E  E  E  E     E  E  E  E  E  E  E  E   
--2--0-----0--2--0-----0--|--2--0-----0--2--0-----0--|--2--0-----0--2--0-----0--|
--------4-----------4-----|--------4-----------4-----|--------4-----------4-----|
--------------------------|--------------------------|--------------------------|
--------------------------|--------------------------|--------------------------|
--------------------------|--------------------------|--------------------------|
--------------------------|--------------------------|--------------------------|

                                                      7/8                    3/4
  E  E  E  E  E  E  E  E     E  E  E  E  E  E  E  E     E  E  E  E  E  E  E     E  E  E  E  E  E   
--2--0-----0--2--0-----0--|--2--0-----0--2--0-----0--|--2--0-----0-----------|--5--------------5--|
--------4-----------4-----|--------4-----------4-----|--------4-----3--2--0--|--------------5-----|
--------------------------|--------------------------|-----------------------|-----------6--------|
--------------------------|--------------------------|-----------------------|--------7-----------|
--------------------------|--------------------------|-----------------------|-----7--------------|
--------------------------|--------------------------|-----------------------|--5-----------------|


  E  E  E  E  E  E     E  E  E  E  E  E      E  E  E  E  E   E     E  E  E  E  E  E   
--7--------0--4--7--|--9--------0--5--9--|--10-----------7--10--|--9-----------5--9--|
--------0-----------|--------------------|------------7---------|-----------5--------|
--------------------|--------------------|---------7------------|--------6-----------|
-----6--------------|--------7-----------|---0--9---------------|-----7--------------|
--7-----------------|--0--7--------------|----------------------|--7-----------------|
--------------------|--------------------|----------------------|--------------------|


                     7/8                NH      NH   4/4                                    
  E  E  E  E  E  E      E  E   E   E    E  E    E        E   E   E   E   E   E   E   E   
--7--------0--4--7--|--12-----12--12--<>5--0--<>5--||---14--12--11--12--14--12--11--12--|
--------0-----------|------------------------------||-----------------------------------|
--------------------|------9-----------------------||*----------------------------------|
-----6--------------|------------------------------||*----------------------------------|
--7-----------------|------------------------------||-----------------------------------|
--------------------|------------------------------||-----------------------------------|

                                                                      6/8
   E   E   E   E   E   E   E   E   4x   E   E   E   E   E  E  E   E     E  E  E  E  E  E   
--14--12--11--12--14--12--11--12---||--14--12--11--12--10--9--7------|--------0-----------|
-----------------------------------||----------------------------10--|--9--7-----3--2--0--|
----------------------------------*||--------------------------------|--------------------|
----------------------------------*||--------------------------------|--------------------|
-----------------------------------||--------------------------------|--------------------|
-----------------------------------||--------------------------------|--------------------|

3/4
  E  E  E  E  E  E     E  E  E  E  E  E     E  E  E  E  E  E      E  E  E  E  E   E   
--5--------------5--|--7--------0--4--7--|--9--------0--5--9--|--10-----------7--10--|
--------------5-----|--------0-----------|--------------------|------------7---------|
-----------6--------|--------------------|--------------------|---------7------------|
--------7-----------|-----6--------------|--------7-----------|---0--9---------------|
-----7--------------|--7-----------------|--0--7--------------|----------------------|
--5-----------------|--------------------|--------------------|----------------------|


  E  E  E  E  E  E     E  E  E  E  E  E     E  E  E  E  E  E     Q    Q    Q     
--9-----------5--9--|--7--------0--4--7--|--7--------------7--|--5--------------|
-----------5--------|--------0-----------|--------------7-----|-------5---------|
--------6-----------|--------------------|-----------7--------|-------6---------|
-----7--------------|-----6--------------|-----4--7-----------|-------7---------|
--7-----------------|--7-----------------|--0-----------------|--0--------------|
--------------------|--------------------|--------------------|-----------------|

4/4
    Q    Q    Q    E  E     Q    Q    Q    Q       Q    Q    Q    Q       Q    Q    Q    Q     
|-------------0----------|----------------------|------------0----2----|--2---------4---------|
|---0-----------------4--|--4---------2---------|--2----4--------------|----------------------|
|*-----------------------|----------------------|------------1---------|--2---------4---------|
|*--2---------2----------|--2---------2---------|--2-------------------|----------------------|
|------------------------|-------0---------0----|-------2---------2----|----------------------|
|---0----4----0----4-----|--0---------0---------|--0---------0---------|--0----4----0----4----|


  Q    Q    Q    Q       Q    Q    Q    Q       Q    Q    Q    Q       Q    Q    Q    Q       
--4---------5----4----|--2----0---------0----|------------0---------|-----------------------||
-------2--------------|------------4---------|--0----0--------------|--4----2----0----------||
--4-------------------|----------------------|------------1----2----|-----------------2----*||
--0----4----0----4----|-------2---------2----|-------2---------2----|-------4--------------*||
----------------------|--4---------3---------|--2---------2---------|--2---------2----------||
----------------------|----------------------|----------------------|-----------------2-----||


  Q    Q    Q    Q       Q    Q    Q    Q       Q    Q    Q    Q       E  E  E  E  H         
--7----5----4----2----|--0----2----0----2----|--4----2----2----0----|--0--------------------|
----------------------|--2---------1---------|--0-------------------|-----------------------|
--7-------------------|----------------------|----------------------|--1--------------------|
--0----4----0----4----|-------2---------2----|-------2---------4----|-----------------------|
----------------------|--4---------3---------|--2---------2---------|-----2-----2-----------|
----------------------|----------------------|----------------------|--0-----4-----0--------|


   E   E   E   E   E   E   E   E      E   E   E   E   E   E   E   E   
--14--12--11--12--14--12--11--12--|--14--12--11--12--14--12--11--12--|
----------------------------------|----------------------------------|
----------------------------------|----------------------------------|
----------------------------------|----------------------------------|
----------------------------------|----------------------------------|
----------------------------------|----------------------------------|


   E   E   E   E   E   E   E   E      E   E   E   E   E   E   E   E   
--14--12--11--12--14--12--11--12--|--14--12--11--12--14--12--11--12--|
----------------------------------|----------------------------------|
----------------------------------|----------------------------------|
----------------------------------|----------------------------------|
----------------------------------|----------------------------------|
----------------------------------|----------------------------------|

                                                                     7/8
   E   E   E   E   E   E   E   E      E   E   E   E   E   E   E   E      E   E   E   E   E  E  E   
--14--12--11--12--14--12--11--12--|--14--12--11--12--14--12--11--12--|--14--12--11--12--10--9--7--|
----------------------------------|----------------------------------|----------------------------|
----------------------------------|----------------------------------|----------------------------|
----------------------------------|----------------------------------|----------------------------|
----------------------------------|----------------------------------|----------------------------|
----------------------------------|----------------------------------|----------------------------|

3/4
  E  E  E  E  E  E     E  E  E  E  E  E     E  E  E  E  E  E      E  E  E  E  E   E   
--5--------------5--|--7--------0--4--7--|--9--------0--5--9--|--10-----------7--10--|
--------------5-----|--------0-----------|--------------------|------------7---------|
-----------6--------|--------------------|--------------------|---------7------------|
--------7-----------|-----6--------------|--------7-----------|---0--9---------------|
-----7--------------|--7-----------------|--0--7--------------|----------------------|
--5-----------------|--------------------|--------------------|----------------------|


                                          7/8                NH      NH  
  E  E  E  E  E  E     E  E  E  E  E  E      E  E   E   E    E  E    E   
--9-----------5--9--|--7--------0--4--7--|--12-----12--12--<>5--0--<>5--|
-----------5--------|--------0-----------|------------------------------|
--------6-----------|--------------------|------9-----------------------|
-----7--------------|-----6--------------|------------------------------|
--7-----------------|--7-----------------|------------------------------|
--------------------|--------------------|------------------------------|

4/4                                                                       2/4
     E   E   E   E   E   E   E   E      E   E   E   E   E   E   E   E   7x   E   E   E   E   
|---14--12--11--12--14--12--11--12--|--14--12--11--12--14--12--11--12---||--14--12--11--12--|
|-----------------------------------|-----------------------------------||------------------|
|*----------------------------------|----------------------------------*||------------------|
|*----------------------------------|----------------------------------*||------------------|
|-----------------------------------|-----------------------------------||------------------|
|-----------------------------------|-----------------------------------||------------------|

4/4
   E   E   E   E   E   E   E   E      E   E   E   E   E   E   E   E   
--14--12--11--12--14--12--11--12--|--14--12--11--12--14--12--11--12--|
----------------------------------|----------------------------------|
----------------------------------|----------------------------------|
----------------------------------|----------------------------------|
----------------------------------|----------------------------------|
----------------------------------|----------------------------------|

                                 6/8                  3/4
   E   E   E   E   E  E  E   E     E  E  E  E  E  E     E  E  E  E  E  E     E  E  E  E  E  E   
--14--12--11--12--10--9--7------|--------0-----------|--------------------|--------------------|
----------------------------10--|--9--7-----3--2--0--|--------------------|--0--------------0--|
--------------------------------|--------------------|--2--------------2--|--------------1-----|
--------------------------------|--------------------|--------------2-----|-----------2--------|
--------------------------------|--------------------|--0-----0--4--------|--------2-----------|
--------------------------------|--------------------|-----0--------------|--0--4--------------|


  E  E  E  E  E  E     E  E  E  E  E  E     E  E  E  E  E  E     E  E  E  E  E  E   
--------------------|--------------------|--------------------|--------------------|
--2--------------2--|--3--------------3--|--2--------------2--|--0--------------0--|
--------------2-----|--------------4-----|--------------2-----|--------------1-----|
-----------2--------|--0-----0--4--------|-----------2--------|-----------2--------|
--0-----0-----------|-----2--------------|-----0--4-----------|--------2-----------|
-----0--------------|--------------------|--0-----------------|--0--4--------------|


  E  E  E  E  E  E     E  E  E  E  E   E      E  E  E  E  E  E     E  E  E  E  E  E   
--------------------|---------------------|--10-----------------|--------------------|
--0--------------0--|--3-----0-----7--10--|---------0--------0--|--3--------------0--|
--------------------|-----------7---------|---------------------|--------------------|
-----------0--4-----|-----4---------------|------6-----0--3-----|-----------0--3-----|
--0-----0-----------|---------------------|---0-----------------|--------2-----------|
-----2--------------|---------------------|---------------------|-----1--------------|


  ^                                         ^                              
  E  E  E  E  E  E     E  E  E  E  E  E     H.              H.             
--------------------|--------------0--5--|--5------------|--L------------||
--2-----------------|--2--------2--------|--7------------|--L------------||
--2--------------2--|--------2-----------|--6------------|--L------------||
--2-----------2-----|-----2--------------|---------------|---------------||
--0-----0--4--------|--------------------|---------------|---------------||
-----3--------------|--------------------|---------------|---------------||




Duration Legend
---------------
W - whole
H - half
Q - quarter
E - 8th
S - 16th
. - note dotted
|-n-|  - n-tuplets


Tablature Legend
----------------
L - tied note
h - hammer on
p - pull off
^ - brush up
v - brush down
Login or Register to remove this ad.