Valkyries 2 (Duke Nukem Forever) Bass/Guitar Tab

Submitted: Jun 15, 2011 by Jacob31593 (Last updated: May 22, 2012)

5
Average: 5 (2 votes)
Download | Listen
Game: Duke Nukem Forever
Composer(s): Lee Jackson
Style: 2 or more instruments, Alternate picking, Arrangement, Sweep picking, Transcription

AutoScroll: Slow | Medium | Fast

Valkyries 2+3 from Duke Nukem Forever
Composed by Richard Wagner
Arranged by Lee Jackson
Tabbed by Jacob31593
June 16th 2011

This tab also includes Valkyrie 3, which is the six second long ending.
This song goes in a pattern of three measures of 9/8 and one measure of 11/8, until measure 29 where it stays in 12/8 until the repeat. This probably doesnt matter to any of you!
140 BPM

Lead 1
                                      E.  S E  Q.      Q.         E.  S E  Q.      Q.         E.  S E  Q.      Q.       
E||--------|-------|-------|-------|---------------------------|---------------------------|-----------5~--------------|
B||--------|-------|-------|-------|---------------------------|-----------7~--------------|--7-----7------------------|
G||*-------|-------|-------|-------|--4-----4--7~------4~------|--7---4-7----------7~------|------7--------------------|
D||*-------|-------|-------|-------|------4--------------------|---------------------------|-------------------7~------|
A||--------|-------|-------|-------|---------------------------|---------------------------|---------------------------|
E||--------|-------|-------|-------|---------------------------|---------------------------|---------------------------|


  E.  S E  Q.      Q.     Q                                        E.   S  E   Q.       Q.       
-------------------------------|-------|-------|-------|-------|--------------------------------|
-----------7~------L------L----|-------|-------|-------|-------|--12------12--15~------12~------|
--7-----7----------------------|-------|-------|-------|-------|-------11-----------------------|
------7------------------------|-------|-------|-------|-------|--------------------------------|
-------------------------------|-------|-------|-------|-------|--------------------------------|
-------------------------------|-------|-------|-------|-------|--------------------------------|


   E.   S  E   Q.       Q.          E.   S  E   Q.       Q.          E.   S  E   Q.      Q.     Q                     
--------------14~---------------|--14------14--17~---------------|--------------14~------L------L----|-------|-------|
--15---12-15-----------15~------|-------15-----------------------|--15------15-----------------------|-------|-------|
--------------------------------|-----------------------14~------|-------14--------------------------|-------|-------|
--------------------------------|--------------------------------|-----------------------------------|-------|-------|
--------------------------------|--------------------------------|-----------------------------------|-------|-------|
--------------------------------|--------------------------------|-----------------------------------|-------|-------|


-------|-------|-------|-------|-------|-------|-------|-------|-------|-------|-------|-------|-------|-------|-------|
-------|-------|-------|-------|-------|-------|-------|-------|-------|-------|-------|-------|-------|-------|-------|
-------|-------|-------|-------|-------|-------|-------|-------|-------|-------|-------|-------|-------|-------|-------|
-------|-------|-------|-------|-------|-------|-------|-------|-------|-------|-------|-------|-------|-------|-------|
-------|-------|-------|-------|-------|-------|-------|-------|-------|-------|-------|-------|-------|-------|-------|
-------|-------|-------|-------|-------|-------|-------|-------|-------|-------|-------|-------|-------|-------|-------|


                           W                             W                                                              
                           H.           H.               H.           H.               Q     Q     Q     Q.     Q.      
-------|-------|-------|-----------------------------|-----------------------------|--------------------10------9------|
-------|-------|-------|--12-------------------------|-----------------------------|--12----12----12-------------------|
-------|-------|-------|-----------------------------|--11------------L------------|-----------------------------------|
-------|-------|-------|-----------------------------|-----------------------------|-----------------------------------|
-------|-------|-------|-----------------------------|-----------------------------|-----------------------------------|
-------|-------|-------|-----------------------------|-----------------------------|-----------------------------------|


                                                                                            W                 
   H.             H.                E   E  E   E   E   E  E  E  E  E  E  E      Q     Q     W                 
--------------------------------|-------------------------------------------|--------------------------------|
--10~---------------------------|--12--12-----12--12--12--------------------|--------------------------------|
-----------------11~------------|--11--11-----11--11--11--------------------|--11----12----11----------------|
--------------------------------|--------------9----------------------------|--------------------------------|
--------------------------------|-------------------------------------------|--------------------------------|
--------------------------------|-------------------------------------------|--------------------------------|


                                                                            W                          
   Q     Q     Q     Q.     Q.         Q     H         Q     Q     Q        H.           H.            
--------------------10------9------|--14----12--------17----21----22----|-----------------------------|
-----------------------------------|------------------------------------|--12-------------------------|
--11----11----11-------------------|------------------------------------|-----------------------------|
-----------------------------------|------------------------------------|-----------------------------|
-----------------------------------|------------------------------------|-----------------------------|
-----------------------------------|------------------------------------|-----------------------------|


   W                                                                                               
   H.           H.               Q     Q     Q     Q.     Q.         H.             H.             
-----------------------------|--------------------10------9------|--------------------------------|
-----------------------------|--12----12----12-------------------|--10~---------------------------|
--11------------L------------|-----------------------------------|-----------------11~------------|
-----------------------------|-----------------------------------|--------------------------------|
-----------------------------|-----------------------------------|--------------------------------|
-----------------------------|-----------------------------------|--------------------------------|


                                                           W                                                     
   E   E  E   E   E   E  E  E  E  E  E  E      Q     Q     W                    Q     Q     Q     Q.     Q.      
-------------------------------------------|--------------------------------|--------------------10------9------|
--12--12-----12--12--12--------------------|--------------------------------|-----------------------------------|
--11--11-----11--11--11--------------------|--11----12----11----------------|--11----11----11-------------------|
--------------9----------------------------|--------------------------------|-----------------------------------|
-------------------------------------------|--------------------------------|-----------------------------------|
-------------------------------------------|--------------------------------|-----------------------------------|


   Q     H         Q     Q     Q          H.            H.              H.           H.                             
--14----12--------17----21----22-----||------------------------------|----------------------------|---------------||
-------------------------------------||--12------------12------------|--L------------L------------|---------------||
------------------------------------*||------------------------------|----------------------------|---------------||
------------------------------------*||------------------------------|----------------------------|---------------||
-------------------------------------||------------------------------|----------------------------|---------------||
-------------------------------------||------------------------------|----------------------------|---------------||


Lead 2

                              E  E  E  E  E  E  E  E  E  E  E     E.  S E  Q.      Q.         E.  S E  Q.      Q.       
E||--------|-------|-------|-----------------------------------|---------------------------|---------------------------|
B||--------|-------|-------|-----------------------------------|---------------------------|---------------------------|
G||*-------|-------|-------|-----------------------------------|---------------------------|---------------------------|
D||*-------|-------|-------|-----------------------------------|-----------0~--------------|-----------4~--------------|
A||--------|-------|-------|-----------------------------------|--2-----2----------2~------|--5-----5----------5~------|
E||--------|-------|-------|--------------------------2--2--2--|------2--------------------|------7--------------------|


  E.  S E  Q.      Q.         E.  S E  Q.      Q.     Q                                       E.  S E  Q.      Q.       
---------------------------|-------------------------------|-------|-------|-------|-------|---------------------------|
---------------------------|-------------------------------|-------|-------|-------|-------|---------------------------|
---------------------------|-------------------------------|-------|-------|-------|-------|--4-----4--7~------4~------|
--4---0-4--7~--------------|-----------4~------L------L----|-------|-------|-------|-------|------4--------------------|
-------------------0~------|--5---0-5----------------------|-------|-------|-------|-------|---------------------------|
---------------------------|-------------------------------|-------|-------|-------|-------|---------------------------|


  E.  S E  Q.      Q.         E.  S E  Q.      Q.         E.  S E  Q.      Q.     Q                                     
---------------------------|-----------5~--------------|-------------------------------|-------|-------|-------|-------|
-----------7~--------------|--7-----7------------------|-----------7~------L------L----|-------|-------|-------|-------|
--7---4-7----------7~------|------7--------------------|--7-----7----------------------|-------|-------|-------|-------|
---------------------------|-------------------7~------|------7------------------------|-------|-------|-------|-------|
---------------------------|---------------------------|-------------------------------|-------|-------|-------|-------|
---------------------------|---------------------------|-------------------------------|-------|-------|-------|-------|


                                                  PM PM PM                                                    PM PM PM  
                          E  E  E  E  E  E  E  E  E  E  E                             E  E  E  E  E  E  E  E  E  E  E   
-------|-------|-------|-----------------------------------|-------|-------|-------|-----------------------------------|
-------|-------|-------|-----------------------------------|-------|-------|-------|-----------------------------------|
-------|-------|-------|-----------------------------------|-------|-------|-------|-----------------------------------|
-------|-------|-------|-----------------------------------|-------|-------|-------|-----------------------------------|
-------|-------|-------|-----------------------------------|-------|-------|-------|-----------------------------------|
-------|-------|-------|--------------------------2--2--2--|-------|-------|-------|--------------------------2--2--2--|


                                                  W                            W                          
                                                  H.           H.              H.           H.            
-----|-----|-----|-----|-----|-----|-----|-----|----------------------------|----------------------------|
-----|-----|-----|-----|-----|-----|-----|-----|----------------------------|----------------------------|
-----|-----|-----|-----|-----|-----|-----|-----|----------------------------|----------------------------|
-----|-----|-----|-----|-----|-----|-----|-----|--9-------------------------|----------------------------|
-----|-----|-----|-----|-----|-----|-----|-----|----------------------------|--9------------L------------|
-----|-----|-----|-----|-----|-----|-----|-----|----------------------------|----------------------------|


   Q     E  E   E  E   Q.     Q.         H.             H.                E   E  E   E   E   E  E  E  E  E  E  E   
----------------------10------9------|--------------------------------|-------------------------------------------|
-------------------------------------|--10~---------------------------|-------------12----------------------------|
--11----12-----11--------------------|-----------------11~------------|--11--11-----11--11--11--------------------|
---9-----L---------------------------|--------------------------------|---9---9------9---9---9--------------------|
-------------------------------------|--------------------------------|-------------------------------------------|
-------------------------------------|--------------------------------|-------------------------------------------|


             W                                                                   W                          
  Q     Q    W                    Q     E  E   E  E   Q.     Q.                  H.           H.            
------------------------------|----------------------10------9------|---------|----------------------------|
------------------------------|-------------------------------------|---------|----------------------------|
------------------------------|--11----12-----11--------------------|---------|----------------------------|
------------------------------|---9-----L---------------------------|---------|--9-------------------------|
--9----10----9----------------|-------------------------------------|---------|----------------------------|
------------------------------|-------------------------------------|---------|----------------------------|


  W                                                                                                 
  H.           H.               Q     E  E   E  E   Q.     Q.         H.             H.             
----------------------------|----------------------10------9------|--------------------------------|
----------------------------|-------------------------------------|--10~---------------------------|
----------------------------|--11----12-----11--------------------|-----------------11~------------|
----------------------------|---9-----L---------------------------|--------------------------------|
--9------------L------------|-------------------------------------|--------------------------------|
----------------------------|-------------------------------------|--------------------------------|


                                                         W                                                       
   E   E  E   E   E   E  E  E  E  E  E  E     Q     Q    W                    Q     E  E   E  E   Q.     Q.      
-------------------------------------------|------------------------------|----------------------10------9------|
-------------12----------------------------|------------------------------|-------------------------------------|
--11--11-----11--11--11--------------------|------------------------------|--11----12-----11--------------------|
---9---9------9---9---9--------------------|------------------------------|---9-----L---------------------------|
-------------------------------------------|--9----10----9----------------|-------------------------------------|
-------------------------------------------|------------------------------|-------------------------------------|


               W             W                                                      
               H.            H.                                                     
----------||------------------------------|-------------------|-------------------||
----------||--12------------12------------|-------------------|-------------------||
---------*||------------------------------|-------------------|-------------------||
---------*||------------------------------|-------------------|-------------------||
----------||------------------------------|-------------------|-------------------||
----------||------------------------------|-------------------|-------------------||


Rhythm 1

      E  E  E  E  E  E  E  E  E     E  E  E  E  E  E  E  E  E     E  E  E  E  E  E  E  E  E   
E||------------------------------|-----------------------------|-----------------------------|
B||------------------------------|-----------------------------|--7--7--7--------------------|
G||*--4--4--4--------------------|--7--7--7--------------------|--6--6--6--------------------|
D||*--4--4--4--------------------|--7--7--7--------------------|-----------------------------|
A||------------------------------|-----------------------------|-----------------------------|
E||------------------------------|-----------------------------|-----------------------------|


  E  E  E  E  E  E  E  E  E  E  E     E.  S E  Q.     Q.        E.  S E  Q.     Q.        E.  S E  Q.     Q.      
-----------------------------------|-------------------------|-------------------------|-----------5-------------|
-----------------------------------|-------------------------|-----------7-------------|--7-----7--5-------------|
--7--7--7--------------------------|--4-----4--7------4------|--7-----7--6------7------|--6---6-6----------------|
--7--7--7--------------------------|--4---4-4--7------4------|--7---7-7---------7------|------------------7------|
-----------------------------------|-------------------------|-------------------------|------------------7------|
-----------------------------------|-------------------------|-------------------------|-------------------------|


  E.  S E  Q    E  E  E  E  E  E     E.  S E  Q.     Q.        E.  S E  Q.     Q.        E.  S E  Q.     Q.      
----------------------------------|-------------------------|-------------------------|-----------5-------------|
-----------7-------7-----7--7--7--|-------------------------|-----------7-------------|--7-----7--5-------------|
--7-----7--6-------6-----6--6--6--|--4-----4--7------4------|--7-----7--6------7------|--6---6-6----------------|
--7---7-7-------------------------|--4---4-4--7------4------|--7---7-7---------7------|------------------7------|
----------------------------------|-------------------------|-------------------------|------------------7------|
----------------------------------|-------------------------|-------------------------|-------------------------|


  E.  S E  Q    E  E  E  E  E  E     E.  S E  Q.     Q.        E.  S E  Q.     Q.        E.  S E  Q.     Q.      
----------------------------------|-------------------------|-------------------------|-----------5-------------|
-----------7-------7-----7--7--7--|-------------------------|-----------7-------------|--7-----7--5-------------|
--7-----7--6-------6-----6--6--6--|--4-----4--7------4------|--7-----7--6------7------|--6---6-6----------------|
--7---7-7-------------------------|--4---4-4--7------4------|--7---7-7---------7------|------------------7------|
----------------------------------|-------------------------|-------------------------|------------------7------|
----------------------------------|-------------------------|-------------------------|-------------------------|


  E.  S E  Q    E  E  E  E  E  E     E.  S E  Q.     Q.        E.  S E  Q.     Q.        E.  S E  Q.     Q.      
----------------------------------|-------------------------|-------------------------|-----------5-------------|
-----------7-------7-----7--7--7--|-------------------------|-----------7-------------|--7-----7--5-------------|
--7-----7--6-------6-----6--6--6--|--4-----4--7------4------|--7-----7--6------7------|--6---6-6----------------|
--7---7-7-------------------------|--4---4-4--7------4------|--7---7-7---------7------|------------------7------|
----------------------------------|-------------------------|-------------------------|------------------7------|
----------------------------------|-------------------------|-------------------------|-------------------------|


  E.  S E  Q    E  E  E  E  E  E     E  E  E  E  E  E  E  E  E     E  E  E  E  E  E  E  E  E   
----------------------------------|-----------------------------|-----------------------------|
-----------7-------7-----7--7--7--|-----------------------------|-----------------------------|
--7-----7--6-------6-----6--6--6--|--4--4--4--------------------|--7--7--7--------------------|
--7---7-7-------------------------|--4--4--4--------------------|--7--7--7--------------------|
----------------------------------|-----------------------------|-----------------------------|
----------------------------------|-----------------------------|-----------------------------|


  E  E  E  E  E  E  E  E  E     E  E  E  E  E  E  E  E  E  E  E     E  E  E  E  E  E  E  E  E   
-----------------------------|-----------------------------------|-----------------------------|
--7--7--7--------------------|-----------------------------------|-----------------------------|
--6--6--6--------------------|--7--7--7--------------------------|--4--4--4--------------------|
-----------------------------|--7--7--7--------------------------|--4--4--4--------------------|
-----------------------------|-----------------------------------|-----------------------------|
-----------------------------|-----------------------------------|-----------------------------|


  E  E  E  E  E  E  E  E  E     E  E  E  E  E  E  E  E  E     E  E  E  E  E  E  E  E  E  E  E   
-----------------------------|-----------------------------|-----------------------------------|
-----------------------------|--7--7--7--------------------|-----------------------------------|
--7--7--7--------------------|--6--6--6--------------------|--7--7--7--------------------------|
--7--7--7--------------------|-----------------------------|--7--7--7--------------------------|
-----------------------------|-----------------------------|-----------------------------------|
-----------------------------|-----------------------------|-----------------------------------|


                     PM PM                       PM PM                                 PM PM       
  H        Q    Q    E  E  Q       Q    H        E  E  H           Q    Q    Q    Q    E  E  Q     
--------------------------------|-------------------------------|---------------------------------|
--------------------------------|-------------------------------|---------------------------------|
-----------4---------------7----|-------------------------------|--4---------4--------------------|
-----------4---------5--5--7----|-------7--------------5--------|--4---------4----4----5--5--7----|
---------------------5--5-------|-------7--------5--5--5--------|-----------------4----------7----|
--------------------------------|-------------------------------|---------------------------------|


                                                  PM PM                       PM PM           
  H.           H.              H        Q    Q    E  E  Q       Q    H        E  E  H         
----------------------------|--------------------------------|-------------------------------|
----------------------------|--------------------------------|-------------------------------|
--7-------------------------|-----------4---------------7----|-------------------------------|
--7------------5------------|-----------4---------5--5--7----|-------7--------------5--------|
---------------5------------|---------------------5--5-------|-------7--------5--5--5--------|
----------------------------|--------------------------------|-------------------------------|


                      PM PM                                                         PM PM       
  Q    Q    Q    Q    E  E  Q       H.           H.              H        Q    Q    E  E  Q     
---------------------------------|----------------------------|--------------------------------|
---------------------------------|----------------------------|--------------------------------|
--4---------4--------------------|--7-------------------------|-----------4---------------7----|
--4---------4----4----5--5--7----|--7------------5------------|-----------4---------5--5--7----|
-----------------4----------7----|---------------5------------|---------------------5--5-------|
---------------------------------|----------------------------|--------------------------------|


                PM PM                                 PM PM                                    
  Q    H        E  E  H           Q    Q    Q    Q    E  E  Q       H.           H.            
-------------------------------|---------------------------------|----------------------------|
-------------------------------|---------------------------------|----------------------------|
-------------------------------|--4---------4--------------------|--7-------------------------|
-------7--------------5--------|--4---------4----4----5--5--7----|--7------------5------------|
-------7--------5--5--5--------|-----------------4----------7----|---------------5------------|
-------------------------------|---------------------------------|----------------------------|


                     PM PM                       PM PM                                 PM PM       
  H        Q    Q    E  E  Q       Q    H        E  E  H           Q    Q    Q    Q    E  E  Q     
--------------------------------|-------------------------------|---------------------------------|
--------------------------------|-------------------------------|---------------------------------|
-----------4---------------7----|-------------------------------|--4---------4--------------------|
-----------4---------5--5--7----|-------7--------------5--------|--4---------4----4----5--5--7----|
---------------------5--5-------|-------7--------5--5--5--------|-----------------4----------7----|
--------------------------------|-------------------------------|---------------------------------|


                                                  PM PM                       PM PM           
  H.           H.              H        Q    Q    E  E  Q       Q    H        E  E  H         
----------------------------|--------------------------------|-------------------------------|
----------------------------|--------------------------------|-------------------------------|
--7-------------------------|-----------4---------------7----|-------------------------------|
--7------------5------------|-----------4---------5--5--7----|-------7--------------5--------|
---------------5------------|---------------------5--5-------|-------7--------5--5--5--------|
----------------------------|--------------------------------|-------------------------------|


                      PM PM                                                         PM PM       
  Q    Q    Q    Q    E  E  Q       H.           H.              H        Q    Q    E  E  Q     
---------------------------------|----------------------------|--------------------------------|
---------------------------------|----------------------------|--------------------------------|
--4---------4--------------------|--7-------------------------|-----------4---------------7----|
--4---------4----4----5--5--7----|--7------------5------------|-----------4---------5--5--7----|
-----------------4----------7----|---------------5------------|---------------------5--5-------|
---------------------------------|----------------------------|--------------------------------|


                PM PM                                 PM PM                                      
  Q    H        E  E  H           Q    Q    Q    Q    E  E  Q       H.           H.              
-------------------------------|---------------------------------|-----------------------------||
-------------------------------|---------------------------------|-----------------------------||
-------------------------------|--4---------4--------------------|--7-------------------------*||
-------7--------------5--------|--4---------4----4----5--5--7----|--7------------5------------*||
-------7--------5--5--5--------|-----------------4----------7----|---------------5-------------||
-------------------------------|---------------------------------|-----------------------------||


                                                              PM                                    
  H.           H.              H.           H        E  E     E  E  E  E  E  E  E  E  E  E  E  E    
----------------------------|------------------------------|--------------------------------------||
----------------------------|------------------------------|--------------------------------------||
--4------------4------------|--4------------L--------L--4--|--4-----------------------------------||
--4------------4------------|--4------------L--------L--4--|--4-----------------------------------||
--2------------2------------|--2------------L--------L--2--|--2-----------------------------------||
----------------------------|------------------------------|--------------------------------------||


Rhythm 2

      PM PM PM PM PM PM PM PM PM    PM PM PM PM PM PM PM PM PM    PM PM PM PM PM PM PM PM PM  
      E  E  E  E  E  E  E  E  E     E  E  E  E  E  E  E  E  E     E  E  E  E  E  E  E  E  E   
E||------------------------------|-----------------------------|-----------------------------|
B||------------------------------|-----------------------------|-----------------------------|
G||*-----------------------------|-----------------------------|-----------------------------|
D||*-----------------------------|-----------------------------|--4--4--4--4--4--4--4--4--4--|
A||---2--2--2--2--2--2--2--2--2--|--5--5--5--5--5--5--5--5--5--|--x--x--x--x--x--x--x--x--x--|
E||---2--2--2--2--2--2--2--2--2--|--2--2--2--2--2--2--2--2--2--|--2--2--2--2--2--2--2--2--2--|


  PM PM PM PM PM PM    PM             PM PM PM PM PM PM PM PM PM    PM PM PM PM PM PM PM PM PM  
  E  E  E  E  E  E  E  E  E  E  E     E  E  E  E  E  E  E  E  E     E  E  E  E  E  E  E  E  E   
-----------------------------------|-----------------------------|-----------------------------|
-----------------------------------|-----------------------------|-----------------------------|
-----------------------------------|-----------------------------|-----------------------------|
-----------------------------------|-----------------------------|-----------------------------|
--5--5--5--5--5--5--5--5--5--5--5--|--2--2--2--2--2--2--2--2--2--|--5--5--5--5--5--5--5--5--5--|
--2--2--2--2--2--2--2--2--2--2--2--|--2--2--2--2--2--2--2--2--2--|--2--2--2--2--2--2--2--2--2--|


  PM PM PM PM PM PM PM PM PM    PM PM PM PM PM PM PM PM PM PM PM    PM PM PM PM PM PM PM PM PM  
  E  E  E  E  E  E  E  E  E     E  E  E  E  E  E  E  E  E  E  E     E  E  E  E  E  E  E  E  E   
-----------------------------|-----------------------------------|-----------------------------|
-----------------------------|-----------------------------------|-----------------------------|
-----------------------------|-----------------------------------|-----------------------------|
--4--4--4--4--4--4--4--4--4--|-----------4--4--4--4--4--4--4--4--|-----------------------------|
--x--x--x--x--x--x--x--x--x--|--5--5--5--x--x--x--x--x--x--x--x--|--2--2--2--2--2--2--2--2--2--|
--2--2--2--2--2--2--2--2--2--|--2--2--2--2--2--2--2--2--2--2--2--|--2--2--2--2--2--2--2--2--2--|


  PM PM PM PM PM PM PM PM PM    PM PM PM PM PM PM PM PM PM    PM PM PM PM PM PM PM PM PM PM PM  
  E  E  E  E  E  E  E  E  E     E  E  E  E  E  E  E  E  E     E  E  E  E  E  E  E  E  E  E  E   
-----------------------------|-----------------------------|-----------------------------------|
-----------------------------|-----------------------------|-----------------------------------|
-----------------------------|-----------------------------|-----------------------------------|
-----------------------------|--4--4--4--4--4--4--4--4--4--|-----------4--4--4--4--4--4--4--4--|
--5--5--5--5--5--5--5--5--5--|--x--x--x--x--x--x--x--x--x--|--5--5--5--x--x--x--x--x--x--x--x--|
--2--2--2--2--2--2--2--2--2--|--2--2--2--2--2--2--2--2--2--|--2--2--2--2--2--2--2--2--2--2--2--|


  PM PM PM PM PM PM PM PM PM    PM PM PM PM PM PM PM PM PM    PM PM PM PM PM PM PM PM PM  
  E  E  E  E  E  E  E  E  E     E  E  E  E  E  E  E  E  E     E  E  E  E  E  E  E  E  E   
-----------------------------|-----------------------------|-----------------------------|
-----------------------------|-----------------------------|-----------------------------|
-----------------------------|-----------------------------|-----------------------------|
-----------------------------|-----------------------------|--4--4--4--4--4--4--4--4--4--|
--2--2--2--2--2--2--2--2--2--|--5--5--5--5--5--5--5--5--5--|--x--x--x--x--x--x--x--x--x--|
--2--2--2--2--2--2--2--2--2--|--2--2--2--2--2--2--2--2--2--|--2--2--2--2--2--2--2--2--2--|


  PM PM PM PM PM PM PM PM PM PM PM    PM PM PM PM PM PM PM PM PM    PM PM PM PM PM PM PM PM PM  
  E  E  E  E  E  E  E  E  E  E  E     E  E  E  E  E  E  E  E  E     E  E  E  E  E  E  E  E  E   
-----------------------------------|-----------------------------|-----------------------------|
-----------------------------------|-----------------------------|-----------------------------|
-----------------------------------|-----------------------------|-----------------------------|
-----------4--4--4--4--4--4--4--4--|-----------------------------|-----------------------------|
--5--5--5--x--x--x--x--x--x--x--x--|--2--2--2--2--2--2--2--2--2--|--5--5--5--5--5--5--5--5--5--|
--2--2--2--2--2--2--2--2--2--2--2--|--2--2--2--2--2--2--2--2--2--|--2--2--2--2--2--2--2--2--2--|


  PM PM PM PM PM PM PM PM PM    PM PM PM PM PM PM PM PM PM PM PM    PM PM PM PM PM PM PM PM PM  
  E  E  E  E  E  E  E  E  E     E  E  E  E  E  E  E  E  E  E  E     E  E  E  E  E  E  E  E  E   
-----------------------------|-----------------------------------|-----------------------------|
-----------------------------|-----------------------------------|-----------------------------|
-----------------------------|-----------------------------------|-----------------------------|
--4--4--4--4--4--4--4--4--4--|-----------4--4--4--4--4--4--4--4--|-----------------------------|
--x--x--x--x--x--x--x--x--x--|--5--5--5--x--x--x--x--x--x--x--x--|--2--2--2--2--2--2--2--2--2--|
--2--2--2--2--2--2--2--2--2--|--2--2--2--2--2--2--2--2--2--2--2--|--2--2--2--2--2--2--2--2--2--|


  PM PM PM PM PM PM PM PM PM    PM PM PM PM PM PM PM PM PM    PM PM PM PM PM PM    PM           
  E  E  E  E  E  E  E  E  E     E  E  E  E  E  E  E  E  E     E  E  E  E  E  E  E  E  E  E  E   
-----------------------------|-----------------------------|-----------------------------------|
-----------------------------|-----------------------------|-----------------------------------|
-----------------------------|-----------------------------|-----------------------------------|
-----------------------------|--4--4--4--4--4--4--4--4--4--|-----------------------------------|
--5--5--5--5--5--5--5--5--5--|--x--x--x--x--x--x--x--x--x--|--5--5--5--5--5--5--5--5--5--5--5--|
--2--2--2--2--2--2--2--2--2--|--2--2--2--2--2--2--2--2--2--|--2--2--2--2--2--2--2--2--2--2--2--|


  PM PM PM PM PM PM PM PM PM    PM PM PM PM PM PM PM PM PM    PM PM PM PM PM PM PM PM PM  
  E  E  E  E  E  E  E  E  E     E  E  E  E  E  E  E  E  E     E  E  E  E  E  E  E  E  E   
-----------------------------|-----------------------------|-----------------------------|
-----------------------------|-----------------------------|-----------------------------|
-----------------------------|-----------------------------|-----------------------------|
-----------------------------|-----------------------------|--4--4--4--4--4--4--4--4--4--|
--2--2--2--2--2--2--2--2--2--|--5--5--5--5--5--5--5--5--5--|--x--x--x--x--x--x--x--x--x--|
--2--2--2--2--2--2--2--2--2--|--2--2--2--2--2--2--2--2--2--|--2--2--2--2--2--2--2--2--2--|


  PM PM PM PM PM PM    PM             PM PM PM PM           PM PM         PM PM          PM PM           
  E  E  E  E  E  E  E  E  E  E  E     E  E  E  E  Q    Q    E  E  Q       E  E  H        E  E  H         
-----------------------------------|-----------------------------------|--------------------------------|
-----------------------------------|-----------------------------------|--------------------------------|
-----------------------------------|-----------------------------------|--------------------------------|
-----------------------------------|-----------------------------------|--------------------------------|
--5--5--5--5--5--5--5--5--5--5--5--|--2--2--2--2--2---------------5----|--------------------------------|
--2--2--2--2--2--2--2--2--2--2--2--|-------------------2----3--3-------|--5--5--5--------3--3--3--------|


       PM PM           PM PM                                      PM PM PM PM           PM PM       
  Q    E  E  Q    Q    E  E  Q       H.           H.              E  E  E  E  Q    Q    E  E  Q     
----------------------------------|----------------------------|-----------------------------------|
----------------------------------|----------------------------|-----------------------------------|
----------------------------------|----------------------------|-----------------------------------|
----------------------------------|----------------------------|-----------------------------------|
--2----2--2--2--------------------|--5-------------------------|--2--2--2--2--2---------------5----|
------------------2----3--3--5----|---------------3------------|-------------------2----3--3-------|


  PM PM          PM PM                  PM PM           PM PM                                    
  E  E  H        E  E  H           Q    E  E  Q    Q    E  E  Q       H.           H.            
--------------------------------|----------------------------------|----------------------------|
--------------------------------|----------------------------------|----------------------------|
--------------------------------|----------------------------------|----------------------------|
--------------------------------|----------------------------------|----------------------------|
--------------------------------|--2----2--2--2--------------------|--5-------------------------|
--5--5--5--------3--3--3--------|------------------2----3--3--5----|---------------3------------|


  PM PM PM PM           PM PM         PM PM          PM PM                  PM PM           PM PM       
  E  E  E  E  Q    Q    E  E  Q       E  E  H        E  E  H           Q    E  E  Q    Q    E  E  Q     
-----------------------------------|--------------------------------|----------------------------------|
-----------------------------------|--------------------------------|----------------------------------|
-----------------------------------|--------------------------------|----------------------------------|
-----------------------------------|--------------------------------|----------------------------------|
--2--2--2--2--2---------------5----|--------------------------------|--2----2--2--2--------------------|
-------------------2----3--3-------|--5--5--5--------3--3--3--------|------------------2----3--3--5----|


                               PM PM PM PM           PM PM         PM PM          PM PM           
  H.           H.              E  E  E  E  Q    Q    E  E  Q       E  E  H        E  E  H         
----------------------------|-----------------------------------|--------------------------------|
----------------------------|-----------------------------------|--------------------------------|
----------------------------|-----------------------------------|--------------------------------|
----------------------------|-----------------------------------|--------------------------------|
--5-------------------------|--2--2--2--2--2---------------5----|--------------------------------|
---------------3------------|-------------------2----3--3-------|--5--5--5--------3--3--3--------|


       PM PM           PM PM                                      PM PM PM PM           PM PM       
  Q    E  E  Q    Q    E  E  Q       H.           H.              E  E  E  E  Q    Q    E  E  Q     
----------------------------------|----------------------------|-----------------------------------|
----------------------------------|----------------------------|-----------------------------------|
----------------------------------|----------------------------|-----------------------------------|
----------------------------------|----------------------------|-----------------------------------|
--2----2--2--2--------------------|--5-------------------------|--2--2--2--2--2---------------5----|
------------------2----3--3--5----|---------------3------------|-------------------2----3--3-------|


  PM PM          PM PM                  PM PM           PM PM                                    
  E  E  H        E  E  H           Q    E  E  Q    Q    E  E  Q       H.           H.            
--------------------------------|----------------------------------|----------------------------|
--------------------------------|----------------------------------|----------------------------|
--------------------------------|----------------------------------|----------------------------|
--------------------------------|----------------------------------|----------------------------|
--------------------------------|--2----2--2--2--------------------|--5-------------------------|
--5--5--5--------3--3--3--------|------------------2----3--3--5----|---------------3------------|


  PM PM PM PM           PM PM         PM PM          PM PM                  PM PM           PM PM       
  E  E  E  E  Q    Q    E  E  Q       E  E  H        E  E  H           Q    E  E  Q    Q    E  E  Q     
-----------------------------------|--------------------------------|----------------------------------|
-----------------------------------|--------------------------------|----------------------------------|
-----------------------------------|--------------------------------|----------------------------------|
-----------------------------------|--------------------------------|----------------------------------|
--2--2--2--2--2---------------5----|--------------------------------|--2----2--2--2--------------------|
-------------------2----3--3-------|--5--5--5--------3--3--3--------|------------------2----3--3--5----|


  H.           H.                                                               
-----------------------------||---------------|---------------|---------------||
-----------------------------||---------------|---------------|---------------||
----------------------------*||---------------|---------------|---------------||
----------------------------*||---------------|---------------|---------------||
--5--------------------------||---------------|---------------|---------------||
---------------3-------------||---------------|---------------|---------------||


Bass

      E  E  E  E  E  E  E  E  E     E  E  E  E  E  E  E  E  E     E  E  E  E  E  E  E  E  E   
G||------------------------------|-----------------------------|-----------------------------|
D||*-----------------------------|-----------------------------|-----------------------------|
A||---2--2--2--2--2--2--2--2--2--|--5--5--5--5--5--5--5--5--5--|--9--9--9--9--9--9--9--9--9--|
E||*-----------------------------|-----------------------------|-----------------------------|
B||------------------------------|-----------------------------|-----------------------------|


  E  E  E  E  E  E  E  E  E  E  E     E  E  E  E  E  E  E  E  E     E  E  E  E  E  E  E  E  E   
-----------------------------------|-----------------------------|-----------------------------|
-----------------------------------|-----------------------------|-----------------------------|
--5--5--5--5--5--5--5--5--5--5--5--|--2--2--2--2--2--2--2--2--2--|--5--5--5--5--5--5--5--5--5--|
-----------------------------------|-----------------------------|-----------------------------|
-----------------------------------|-----------------------------|-----------------------------|


  E  E  E  E  E  E  E  E  E     E  E  E  E  E  E  E  E  E  E  E     E  E  E  E  E  E  E  E  E   
-----------------------------|-----------------------------------|-----------------------------|
-----------------------------|-----------------------------------|-----------------------------|
--9--9--9--9--9--9--9--9--9--|--5--5--5--9--9--9--9--9--9--9--9--|--2--2--2--2--2--2--2--2--2--|
-----------------------------|-----------------------------------|-----------------------------|
-----------------------------|-----------------------------------|-----------------------------|


  E  E  E  E  E  E  E  E  E     E  E  E  E  E  E  E  E  E     E  E  E  E  E  E  E  E  E  E  E   
-----------------------------|-----------------------------|-----------------------------------|
-----------------------------|-----------------------------|-----------------------------------|
--5--5--5--5--5--5--5--5--5--|--9--9--9--9--9--9--9--9--9--|--5--5--5--9--9--9--9--9--9--9--9--|
-----------------------------|-----------------------------|-----------------------------------|
-----------------------------|-----------------------------|-----------------------------------|


  E  E  E  E  E  E  E  E  E     E  E  E  E  E  E  E  E  E     E  E  E  E  E  E  E  E  E   
-----------------------------|-----------------------------|-----------------------------|
-----------------------------|-----------------------------|-----------------------------|
--2--2--2--2--2--2--2--2--2--|--5--5--5--5--5--5--5--5--5--|--9--9--9--9--9--9--9--9--9--|
-----------------------------|-----------------------------|-----------------------------|
-----------------------------|-----------------------------|-----------------------------|


  E  E  E  E  E  E  E  E  E  E  E     E  E  E  E  E  E  E  E  E     E  E  E  E  E  E  E  E  E   
-----------------------------------|-----------------------------|-----------------------------|
-----------------------------------|-----------------------------|-----------------------------|
--5--5--5--9--9--9--9--9--9--9--9--|--2--2--2--2--2--2--2--2--2--|--5--5--5--5--5--5--5--5--5--|
-----------------------------------|-----------------------------|-----------------------------|
-----------------------------------|-----------------------------|-----------------------------|


  E  E  E  E  E  E  E  E  E     E  E  E  E  E  E  E  E  E  E  E     E  E  E  E  E  E  E  E  E   
-----------------------------|-----------------------------------|-----------------------------|
-----------------------------|-----------------------------------|-----------------------------|
--9--9--9--9--9--9--9--9--9--|--5--5--5--9--9--9--9--9--9--9--9--|--2--2--2--2--2--2--2--2--2--|
-----------------------------|-----------------------------------|-----------------------------|
-----------------------------|-----------------------------------|-----------------------------|


  E  E  E  E  E  E  E  E  E     E  E  E  E  E  E  E  E  E     E  E  E  E  E  E  E  E  E  E  E   
-----------------------------|-----------------------------|-----------------------------------|
-----------------------------|-----------------------------|-----------------------------------|
--5--5--5--5--5--5--5--5--5--|--9--9--9--9--9--9--9--9--9--|--5--5--5--5--5--5--5--5--5--5--5--|
-----------------------------|-----------------------------|-----------------------------------|
-----------------------------|-----------------------------|-----------------------------------|


  E  E  E  E  E  E  E  E  E     E  E  E  E  E  E  E  E  E     E  E  E  E  E  E  E  E  E   
-----------------------------|-----------------------------|-----------------------------|
-----------------------------|-----------------------------|-----------------------------|
--2--2--2--2--2--2--2--2--2--|--5--5--5--5--5--5--5--5--5--|--9--9--9--9--9--9--9--9--9--|
-----------------------------|-----------------------------|-----------------------------|
-----------------------------|-----------------------------|-----------------------------|


  E  E  E  E  E  E  E  E  E  E  E     E  E  E  E  E  E  Q    E  E  Q       E  E  H        E  E  H         
-----------------------------------|------------------------------------|--------------------------------|
-----------------------------------|------------------------------------|--------------------------------|
--5--5--5--5--5--5--5--5--5--5--5--|------------------------------------|--------------------------------|
-----------------------------------|--7--7--7--7--7--7------------------|--5--5--L-----------------------|
-----------------------------------|--------------------7----8--8--L----|-----------------8--8--8--------|


  Q    E  E  Q    Q    H           Q    Q    Q    Q    Q    Q       E  E  E  E  E  E  Q    E  E  Q     
--------------------------------|--------------------------------|------------------------------------|
--------------------------------|--------------------------------|------------------------------------|
--------------------------------|--------------------------------|------------------------------------|
--7----7--7--7------------------|--------------------------------|--7--7--7--7--7--7------------------|
------------------7----L--------|--L----L----L----L----L----L----|--------------------7----8--8--L----|


  E  E  H        E  E  H           Q    E  E  Q    Q    H           Q    Q    Q    Q    Q    Q     
--------------------------------|--------------------------------|--------------------------------|
--------------------------------|--------------------------------|--------------------------------|
--------------------------------|--------------------------------|--------------------------------|
--5--5--L-----------------------|--7----7--7--7------------------|--------------------------------|
-----------------8--8--8--------|------------------7----L--------|--L----L----L----L----L----L----|


  E  E  E  E  E  E  Q    E  E  Q       E  E  H        E  E  H           Q    E  E  Q    Q    H         
------------------------------------|--------------------------------|--------------------------------|
------------------------------------|--------------------------------|--------------------------------|
------------------------------------|--------------------------------|--------------------------------|
--7--7--7--7--7--7------------------|--5--5--L-----------------------|--7----7--7--7------------------|
--------------------7----8--8--L----|-----------------8--8--8--------|------------------7----L--------|


  Q    Q    Q    Q    Q    Q       E  E  E  E  E  E  Q    E  E  Q       E  E  H        E  E  H         
--------------------------------|------------------------------------|--------------------------------|
--------------------------------|------------------------------------|--------------------------------|
--------------------------------|------------------------------------|--------------------------------|
--------------------------------|--7--7--7--7--7--7------------------|--5--5--L-----------------------|
--L----L----L----L----L----L----|--------------------7----8--8--L----|-----------------8--8--8--------|


  Q    E  E  Q    Q    H           Q    Q    Q    Q    Q    Q       E  E  E  E  E  E  Q    E  E  Q     
--------------------------------|--------------------------------|------------------------------------|
--------------------------------|--------------------------------|------------------------------------|
--------------------------------|--------------------------------|------------------------------------|
--7----7--7--7------------------|--------------------------------|--7--7--7--7--7--7------------------|
------------------7----L--------|--L----L----L----L----L----L----|--------------------7----8--8--L----|


  E  E  H        E  E  H           Q    E  E  Q    Q    H           Q    Q    Q    Q    Q    Q     
--------------------------------|--------------------------------|--------------------------------|
--------------------------------|--------------------------------|--------------------------------|
--------------------------------|--------------------------------|--------------------------------|
--5--5--L-----------------------|--7----7--7--7------------------|--------------------------------|
-----------------8--8--8--------|------------------7----L--------|--L----L----L----L----L----L----|


  E  E  E  E  E  E  Q    E  E  Q       E  E  H        E  E  H           Q    E  E  Q    Q    H         
------------------------------------|--------------------------------|--------------------------------|
------------------------------------|--------------------------------|--------------------------------|
------------------------------------|--------------------------------|--------------------------------|
--7--7--7--7--7--7------------------|--5--5--L-----------------------|--7----7--7--7------------------|
--------------------7----8--8--L----|-----------------8--8--8--------|------------------7----L--------|


  Q    Q    Q    Q    Q    Q         H.           H.              H.           H.                     
---------------------------------||----------------------------|----------------------------|-------||
--------------------------------*||----------------------------|----------------------------|-------||
---------------------------------||--2------------L------------|--L------------L------------|-------||
--------------------------------*||----------------------------|----------------------------|-------||
--L----L----L----L----L----L-----||----------------------------|----------------------------|-------||


Duration Legend
---------------
W - whole
H - half
Q - quarter
E - 8th
S - 16th
. - note dotted


Tablature Legend
----------------
L - tied note
x - dead note
~ - vibrato
W - wide vibrato
Login or Register to remove this ad.

2 comments on Valkyries 2

delicious

5

delicious

~~~

~~~