Niagara Falls (DuckTales 2) Guitar Tab

Submitted: Aug 25, 2014 by ltm_1988

4
Average: 4 (1 vote)
Download | Listen
Game: DuckTales 2
Composer(s): Minae Fujii
Style: Arrangement, Fingerstyle

AutoScroll: Slow | Medium | Fast
Niagara Falls
Duck Tales 2
Minae Fujii
ltm_1988
8/25/2014

    E   S S S S S S S S S E   S S S   E   S E   S S S E   S E   E   S
E||---------------------------------|-----------------0---------------|
B||---------------0-----------------|-----------------------3---------|
G||*0-------0---------2---------0---|-------2-----5---------0---------|
D||*----2-------2-------------------|-3-----3-------------0-----0-----|
G||-----0-5---0---0-----0-5---0---0-|-----5-----5---5-0-------------0-|
C||-0-----------0---0-----------0---|-5-----------5-------------------|

    E   S S S S S S S S S E   S S S   E   S E   S S S E   S E   S S S
E||---------------------------------|---------------------------------|
B||---------------0-----------------|-----------------0---0-----------|
G||-0-------0---------2---------0---|-------2-----5---------2---2-1---|
D||-----2-------2-------------------|-3-----3-------------0-5---0-----|
G||-----0-5---0---0-----0-5---0---0-|-----5-----5---5-0-------------0-|
C||-0-----------0---0-----------0---|-5-----------5-------------------|

    E   S S S S S S S S S E   S S S   E   S E   S S S E   S E   E   S
E||---------------------------------|-----------------0---------------|
B||---------------0-----------------|-----------------------3---------|
G||-0-------0---------2---------0---|-------2-----5---------0---------|
D||-----2-------2-------------------|-3-----3-------------0-----0-----|
G||-----0-5---0---0-----0-5---0---0-|-----5-----5---5-0-------------0-|
C||-0-----------0---0-----------0---|-5-----------5-------------------|

    E   S S S S S S S S S E   S S S   E   S E   S S S E   S E   S S S
E||---------------------------------|---------------------------------|
B||---------------0-----------------|-----------------0---0-1---1-3---|
G||-0-------0---------2---------0---|-------2-----5---------0---------|
D||-----2-------2-------------------|-3-----3-------------0-----0-----|
G||-----0-5---0---0-----0-5---0---0-|-----5-----5---5-0-------------0-|
C||-0-----------0---0-----------0---|-5-----------5-------------------|

    E   S E   S S S E   S S S S S S   E   S S S S S S E   S E   S S S
E||---------------------------------|-----------------3---3-1---1-----|
B||-4~----------------------3-4-----|-------------4---------------4---|
G||-------------------------------3-|-----0---3-----------------------|
D||-------1---------------1---------|-------1---------------1---------|
G||-----3-----3---3-----3-----3---3-|-----3-----3---3-----3-----3---3-|
C||-3-----------3---3-----------3---|-3-----------3---3-----------3---|

    E   S E   S S S E   S E   S S S   E   S E   S S S S S S S S S S S
E||---------------------------------|---------------------------------|
B||-6---6-----------6---6-----------|-6~----------------------------3-|
G||-------5---5-----------5---5-----|---------------------0-2-3-5-----|
D||-------3-----7---------3-----7---|-------3-----------3---3---------|
G||-----5-----5---5-----5-----5---5-|-----5-----5---5-----5-----5---5-|
C||-5-----------5---5-----------5---|-5-----------5---5-----------5---|

    E   S E   S S S E   S S S S S S   E   S S S S S S E   S E   S S S
E||---------------------------------|-----------------3---3-1---1-----|
B||-4~----------------------3-4-----|-------------4---------------4---|
G||-------------------------------3-|-----0---3-----------------------|
D||-------1---------------1---------|-------1---------------1---------|
G||-----3-----3---3-----3-----3---3-|-----3-----3---3-----3-----3---3-|
C||-3-----------3---3-----------3---|-3-----------3---3-----------3---|

    E   S E   S S S E   S E   S S S   E   S E   S S S S S S S S S S S    W
E||---------------------------------|-3~----------------3-1-0---------||-0-
B||-6---6-----------6---6-----------|-------------------------3-1-0---||-1-
G||-------5---5-----------5---5-----|-------0---------------0-------2*||-0-
D||-------3-----7---------3-----7---|-----0-----0---0-----0-----0---0*||-2-
G||-----5-----5---5-----5-----5---5-|-0-----------0---0-----------0---||-0-
C||-5-----------5---5-----------5---|---------------------------------||-0-
Login or Register to remove this ad.