Egypt (DuckTales 2) Guitar Tab

Submitted: Aug 25, 2014 by ltm_1988

4
Average: 4 (1 vote)
Download | Listen
Game: DuckTales 2
Composer(s): Minae Fujii
Style: Arrangement, Fingerstyle

AutoScroll: Slow | Medium | Fast
Egypt Stage
Duck Tales 2
Minae Fujii
ltm_1988
8/23/2014

    E   S S E   S E   E   S S S S S   E   S S E   S E   S S S S S S S
E||---------------------------------|-------------------2-----2-------|
B||-3-------------------------1-3-4-|---------------------4-3---4-1-3-|
G||*0---0-----------------------0-1-|-------------------4-1-0-4-1---0-|
D||*------------3-----------0-3-----|-----5-------3-----------0---3---|
A||---------------3---3---3---------|---------------3---3---3---------|
E||-3-----3-1-----------------3---3-|-3-----3-1-----------------------|

    E   S S E   S E   E   S S E   S   S S S S S S S E   S S S S S E
E||---------------------------------|---------------------------------|
B||---------------------------------|---1-3---1-3---1---0-------------|
G||-----0---------------------------|-----0-0-----0-------1-------0---|
D||-------------3-----------0-------|-------------3---------3---3-----|
A||---------------3---3---3---------|---------------3---3---3-5-------|
E||-3-----3-1-----------------3---3-|-3-----3-1-----------------------|

    E   S S E   S E   E   S S S S S   E   S S E   S E   S S S S S S S
E||---------------------------------|-------------------2-----2-------|
B||-3-------------------------1-3-4-|---------------------4-3---4-1-3-|
G||-0---0-----------------------0-1-|-------------------4-1-0-4-1---0-|
D||-------------3-----------0-3-----|-----5-------3-----------0---3---|
A||---------------3---3---3---------|---------------3---3---3---------|
E||-3-----3-1-----------------3---3-|-3-----3-1-----------------------|

    E   S S E   S E   E   S S E   S   S S S S S S S E   S S S S S E
E||---------------------------------|---------------------------------|
B||---------------------------------|---1-3---1-3---1---0-------------|
G||-----0---------------------------|-----0-0-----0-------1-------0---|
D||-------------3-----------0-------|-------------3---------3---3-----|
A||---------------3---3---3---------|---------------3---3---3-5-------|
E||-3-----3-1-----------------3---3-|-3-----3-1-----------------------|

    E   S S E   S E   E   S S S S S   E   S S E   S E   S S S S S S S
E||---------------------------------|---------------------------------|
B||---------------------------------|-------------------0-----0-------|
G||-0---0-----------------------0-1-|-----0---------------1-0---1---0-|
D||-0-----------3-----------0-3-0-1-|-------------3-----4-1-0-4-1-3-0-|
A||---------------3---3---3---3-----|---------------3---3---3-5---3---|
E||-3-----3-1-----------------3---3-|-3-----3-1-----------------------|

    E   S S E   S E   E   S S E   S   S S S S S S S E   S S S S S E
E||---------------------------------|---------------------------------|
B||---------------------------------|---1-3---1-3---1---0-------------|
G||-----0---------------------------|-----0-0-----0-------1-------0---|
D||-------------3-----------0-------|-------------3---------3---3-----|
A||---------------3---3---3---------|---------------3---3---3-5-------|
E||-3-----3-1-----------------3---3-|-3-----3-1-----------------------|

    E   S S E   S E   E   S S S S S   E   S S E   S E   S S S S S S S
E||---------------------------------|---------------------------------|
B||---------------------------------|-------------------0-----0-------|
G||-0---0-----------------------0-1-|-----0---------------1-0---1---0-|
D||-0-----------3-----------0-3-0-1-|-------------3-----4-1-0-4-1-3-0-|
A||---------------3---3---3---3-----|---------------3---3---3-5---3---|
E||-3-----3-1-----------------3---3-|-3-----3-1-----------------------|

    E   S S E   S E   E   S S E   S   S S S S S S S E   S S S S S E
E||---------------------------------|---------------------------------|
B||---------------------------------|---1-3---1-3---1---0-------------|
G||-----0---------------------------|-----0-0-----0-------1-------0---|
D||-------------3-----------0-------|-------------3---------3---3-----|
A||---------------3---3---3---------|---------------3---3---3-5-------|
E||-3-----3-1-----------------3---3-|-3-----3-1-----------------------|

    S S S S S S S S S S S S S S S S   S S S S S S S S S S S S S S S S
E||---------------------------------|---------------------------------|
B||-1-4-1---1-4-1---1-4-1---1-4-1---|-1---1-----4-1---1---1---1-4-1---|
G||-------0-------0-------0-------0-|---1---1-----------1---1-------0-|
D||-----0-1-----0-1---4-1-------0---|---4-1---4-1---4---4-1-------0---|
A||-3-3-----3-3---3---3-----3-------|-------------------------3-------|
E||---------------------------------|-4-------4-----4---4-----4-------|

    S S S S S S S S S S S S S S S S   S S S S S S S S S S S S S S S S
E||---------------------------------|---------------------------------|
B||-1-4-1---1-4-1---1-4-1---1-4-1---|-1---1-----4-1---1---1---1-4-1---|
G||-------0-------0-------0-------0-|---1---1-----------1---1-------0-|
D||-----0-1-----0-1---4-1-------0---|---4-1---4-1---4---4-1-------0---|
A||-3-3-----3-3---3---3-----3-------|-------------------------3-------|
E||---------------------------------|-4-------4-----4---4-----4-------|

    S S S S S S S S S S S S S S S S   S S S S S S S S S S S S S S S S
E||---------------------------------|---------------------------------|
B||-1-3---------1---0---------------|-1-3---------1---0---------------|
G||-------0---------0-0-1-1---0-1---|-------0---------0-0-1-1---0-1---|
D||-----1-0-1-0---0---0-1-3-1-0-3-3-|-----1-0-1-0---0---0-1-3-1-0-3---|
A||---5---9-----------------------5-|---5---9-----------------------5-|
E||-3-----------3---3-----------3---|-3-----------3---3-----------3---|

    S S S S S S S S S S S S S S S S   S S S S S S S S S S S S S S S S
E||---------------------------------|---------------------------------|
B||-1-3---------1---0---------------|-1-3---------1---0---------------|
G||-------0---------0-0-1-1---0-1---|-------0---------0-0-1-1---0-1---|
D||-----1-0-1-0---0---0-1-3-1-0-3-3-|-----1-0-1-0---0---0-1-3-1-0-3---|
A||---5---9-----------------------5-|---5---9-----------------------5-|
E||-3-----------3---3-----------3---|-3-----------3---3-----------3---|

    E.    E.    E.    E.    E   E     E.    E.    E.    E.    E   E
E||---------------------------------|-3~----------1~------------------|
B||---------------------------------|-3~----------1~------------------|
G||-0-----------1~------------------|---------------------------------|
D||-0-----------1~------------------|---------------------------------|
A||-3-----3-----3-----3-----3---3---|-3-----3-----3-----3-----3---3---|
E||---------------------------------|---------------------------------|

    E.    E.    E.    E.    E   E     E.    E.    E.    E.    E   E
E||---------------------------------|-3~----------1~------------------|
B||---------------------------------|-3~----------1~------------------|
G||-0-----------1~------------------|---------------------------------|
D||-0-----------1~------------------|---------------------------------|
A||-3-----3-----3-----3-----3---3---|-3-----3-----3-----3-----3---3---|
E||---------------------------------|---------------------------------|

    S S S S S S S S S S S S S S E   x3 W
E||---------------------------------||-3-|
B||---------------------------------||-3-|
G||---0---4---0-4---0-4---0-4---0--*||-3-|
D||-6---6---6-----6-----6-----6----*||-5-|
A||-4-----4-----4-----4-----4-------||-5-|
E||-4-----4-----4-----4-----4-------||-3-|
Login or Register to remove this ad.