Ads

Bermuda Triangle (DuckTales 2) Guitar Tab

Submitted: Aug 25, 2014 by ltm_1988

3.5
Average: 3.5 (2 votes)
Download | Listen
Game: DuckTales 2
Composer(s): Minae Fujii
Style: Arrangement, Fingerstyle

AutoScroll: Slow | Medium | Fast
Bermuda Triangle
Duck Tales 2
Minae Fujii
ltm_1988
8/23/2014

    E   S S S E   E   E   S E   S S   S S S S S E   E   E   S E   S S
E||---------------------------------|---------------------------------|
B||-------------------------------0-|-1-0-----------------------------|
G||*--------------------------------|-----2-0-------2---------------2-|
D||*--------------------------------|-----------2---------------------|
G||-----2---0-2-------2-----0-------|-----2---0-2-------2-----0-------|
C||-2-----2-------2-------2-----0---|-2-----2-------2-------2-----0---|

    S S S S S E   E   E   S E   S S   S S S S S E   E   E   S E   S S
E||---------------------------------|---------------------------------|
B||-0-1-0-------------------------0-|-1-0-----------------------------|
G||-------2---0---------------------|-----2-0-------2---------------2-|
D||---------------2-----------------|-----------2---------------------|
G||-----2---0-2-------2-----0-------|-----2---0-2-------2-----0-------|
C||-2-----2-------2-------2-----0---|-2-----2-------2-------2-----0---|

    S S S S S E   E   E   S S S S S   E   S S S E   E   S S S S S S S
E||---------------------------------|---------------------------------|
B||-0-1-0---------------------------|---------------------0-1-3-1-0---|
G||-------2---0-----------------0---|-2-----------------2-----------2-|
D||---------------2-----------2---2-|-----3-----0-------3---0-1-------|
G||-----2---0-2-------2-----0-------|---------5-------------------5---|
C||-2-----2-------2-------2-----0---|-5-----5-------5-----------------|

    E   S S S E   E   E   S E   S S   E   S S S E   E   E   S S S S S
E||---------------------------------|---------------------------------|
B||-0-------------------------------|-------------------------1-0-----|
G||---------0-------------------0---|-2---2---0-2-------2-----0---2---|
D||-----0-----0-------0-----2-----2-|-----------------------2-------5-|
G||-0-----0-5-----0-------0-5---0---|-2-----2-------2-----------------|
C||---------------------------------|---------------------------------|

    E   S S S E   E   E   S E   E     E   S S S S S E   E   S E   E
E||---------------------------------|---------------------------------|
B||---------------------------------|-------------1-3---3---3-1-------|
G||-2---2---0-2-------2-----0---2---|-3---3---1-3-------3-----1---3---|
D||-----------------------2---------|-------3---------------3---------|
G||-2-----2-------2-----------------|-3-------------3-----------------|
C||---------------------------------|---------------------------------|

    E   S S S E   E   E   S E   E     E   S S S E   E   E   S E   E
E||---------------------------------|---------------------------------|
B||---------------1---1---1---------|---------------------------------|
G||-2---2---2-2-------2-----3---2---|-0-------0-2---3---3---3-----0---|
D||-----------------------2---------|-----1-----1-------1-----7---1---|
G||-2-----2-0-2---2---------0---2---|-------3-6-------------3-6-------|
C||---------------------------------|-3-------------3-----------------|

    E   S S S E   E   E   S E   E     E   S S S E   E   E   S E   E
E||---------------------------------|---------------------------------|
B||-------------------1---1---------|---------------3---3---3-1-------|
G||-2-------2-3---5---------3---2---|-3-------3-5-----------------3---|
D||-----3---1-3-------3---0-1---3---|-----5-0-3-5-------5---2-3---5---|
G||-------5-------------------------|-0-------------0-----------------|
C||-5-------------5-----------------|---------------------------------|

    E   S S S E   E   E   S E   E     E   S S S E   E   E   S E   E
E||---------------------------------|---------------------------------|
B||-------------------1---1---------|---------------------------------|
G||-2-------2-3---5---------3---2---|-0-------0-2---3---3---3-----0---|
D||-----3---1-3-------3---0-1---3---|-----1-----1-------1-----7---1---|
G||-------5-------------------------|-------3-6-------------3-6-------|
C||-5-------------5-----------------|-3-------------3-----------------|

    E   S S S S S E   E   S E   E   x3 W
E||---------------------------------||-1-|
B||---------------3-----------------||-3-|
G||-2-------2-1-2------------------*||-2-|
D||--------------------------------*||-0-|
G||-----2---0-2-------2-----0-------||-2-|
C||-2-----2-------2-------2-----0---||-2-|
Login or Register to remove this ad.

1 comment on Bermuda Triangle

man, you are going crazy with

man, you are going crazy with those sixteenths XD