Ads

Transylvania (Duck Tales) Guitar Tab

Submitted: Aug 23, 2014 by ltm_1988

0
Download | Listen
Game: Duck Tales
Composer(s): Yoshihiro Sakaguchi
Style: Arrangement, Fingerstyle

AutoScroll: Slow | Medium | Fast
Transylvania
Duck Tales
Hiroshige Tonomura
ltm_1988
8/19/2014


    H               H                 H               H                 H               S S E   E   E
E||-0---------------3---------------|-2-------------------------------|---------------------------------|
B||-----------------1---------------|-0---------------1---------------|-0-------------------------------|
G||-2-------------------------------|---------------------------------|---------------------------------|
D||---------------------------------|-----------------3---------------|-2---------------2-0-------------|
A||---------------------------------|---------------------------------|---------------------3---2---0---|
C||---------------------------------|---------------------------------|---------------------------------|

    H               E   Q.            E   E   E   E   E   E   E   E
E||-0---------------3---------------|-2-------------------------------|
B||---------------------------------|-0---1-------0-------------------|
G||*2---------------5---------------|---------------------------------|
D||*--------------------------------|-----3-------2---------------2---|
A||-0-------------------------------|-0-------0-----------0---3-------|
C||-----------------4---7-----------|-----------------4---7-----------|

    H               E   Q.            Q       E   E   E   E   E   E
E||---------------------------------|---------------------3---2-------|
B||---------------------------------|-----------------------------3---|
G||---------------------------------|---------------------------------|
D||-1-------------------------------|-----------------2---------------|
A||-0---------------3---------------|-0-------0---3-------0---2---3---|
C||-----------------4---7-----------|---------------------------------|

    H               E   Q.            E   E   E   E   E   E   E   E
E||-10--------------13--------------|-0-------------------------------|
B||-10--------------13--------------|---------------------------------|
G||---------------------------------|-----3-------2-------2-----------|
D||-0-------------------------------|-0-------0---------------3---0---|
A||-----------------0---3-----------|-----------------0---3-----------|
C||---------------------------------|---------------------------------|

    Q       Q       E   Q       S S   E   Q       Q       E   Q
E||---------------------------------|-------------------------5-------|
B||-----------------------------3-3-|-3---3-------3-------3---5-------|
G||---------------------2-------2-2-|-2---2-------2-------2-----------|
D||-3-------0-------3---------------|-0---0-------0-----------0-------|
A||-5---------------0---3-----------|---------------------0-----------|
C||---------------------------------|---------------------------------|

    H               E   Q.            E   E   E   E   E   E   E   E
E||-0---------------3---------------|-2-------------------------------|
B||---------------------------------|-0---1-------0-------------------|
G||-2---------------5---------------|---------------------------------|
D||---------------------------------|-----3-------2---------------2---|
A||-0-------------------------------|-0-------0-----------0---3-------|
C||-----------------4---7-----------|-----------------4---7-----------|

    H               E   Q.            Q       E   E   E   E   E   E
E||---------------------------------|---------------------3---2-------|
B||---------------------------------|-----------------------------3---|
G||---------------------------------|---------------------------------|
D||-1-------------------------------|-----------------2---------------|
A||-0---------------3---------------|-0-------0---3-------0---2---3---|
C||-----------------4---7-----------|---------------------------------|

    E   E   Q       E   S E.    E     E   E   E   E   E   E   E   E
E||-----1---------------------------|---------------------------------|
B||-3---1---3-----------------------|-----3---1---3-------1---0-------|
G||-2-------2-----------2-2-----2---|-----2---0---2---------------2---|
D||-0-------------------2-2-----2---|-0-------0-----------3---2---0---|
A||-----------------0---3-----------|-----------------0---3-----------|
C||---------------------------------|---------------------------------|

    E   E   E   E   E   E   E   E     E   E   E   Q       E   Q
E||---------------------------------|---------1---3-------5---8-------|
B||-----1---0-----------------------|-3-------1---3-------5---8-------|
G||-----0-------2-------1---2---4---|-2-------------------------------|
D||-0-------4---2-------1---2---4---|-0---0-------0-----------0-------|
A||-----------------0---3-----------|---------------------0-----------|
C||---------------------------------|---------------------------------|

    Q       Q       E   E   E   E     Q       Q       E   E   E   E
E||---------------------------------|---------------------------------|
B||---------------------------------|---------------------------------|
G||---------------------------------|-----------------3---0---3---5~--|
D||-2~--------------3-------3---5~--|---------------------------------|
A||---------------------7-----------|---------------------1-----------|
C||-0-------0-------0---7-------3---|-3-------3-------3-----------5---|

    Q       Q       E   E   E   E     E   E   Q       E   Q       E
E||---------------------------------|---------------------3-------8~--|
B||---------------------------------|-----------------6---------------|
G||-----------------3---0---3-------|-8---5---8-----------------------|
D||-----------------------------10--|---------------------1-----------|
A||---------------------3-----------|---------------------------------|
C||-5-------5-------5-----------8---|-8-------8-------8-----------0---|

    Q       Q       E   E   E   E     E   E   E   E   E   E   E   E
E||---------------------------------|---------------------2---1-------|
B||-------------------------4-------|-----1---4-------------------4---|
G||-----------------3---5-------0---|-------------3-------------------|
D||---------------------------------|---------------------------------|
A||---------------------------------|---------------------1-----------|
C||-0-------0-------0---7-------3---|-3-------3-------3-----------5---|


    Q       E   E   S S E   S S S S   E.    S E   E   S S S S E   E      W
E||---------------------------------|-0-------------------------------||-0-
B||-6-----------------------0-------|-------0-------------------------||-1-
G||---------------------1-----3-0---|-------------1------------------*||-2-
D||-------------------3-----------1-|-----------------2--------------*||-2-
A||---------3---6---6---3-----------|-------------------5-3-2-2---0---||-0-
C||-5-------5-------5-----------3---|-3-------3-------------------7---||---
Login or Register to remove this ad.