Ads

Title Theme (Duck Tales) Guitar Tab

Submitted: Aug 18, 2014 by ltm_1988 (Last updated: Aug 18, 2014)

5
Average: 5 (4 votes)
Download | Listen
Game: Duck Tales
Composer(s): Yoshihiro Sakaguchi
Style: Arrangement, Fingerstyle

AutoScroll: Slow | Medium | Fast
Title Theme
Duck Tales
Hiroshige Tonomura (original TV theme composed by Mark Mueller)
ltm_1988
8/17/2014

    |-3-| |-3-| |-3-| |-3-|   |-3-| |-3-| |-3-| |-3-|
    Q.    Q.    Q.    Q.      Q.    Q   Q.    E Q.
E||-------------------------|-------------------------|
B||-------------------------|-------------------------|
G||*------------------------|-------------------------|
D||*------2-----------2-----|-------2-----------2-----|
A||-------------------------|-------------------------|
E||-0-----------0-----------|-0---------0-----0-------|

    |-3-| |-3-| |-3-| |-3-|   |-3-| |-3-| |-3-| |-3-|   |-3-| |-3-| |-3-| |-3-|   |-3-| |-3-| |-3-| |-3-|
    Q.    Q.    Q.    Q.      Q.    Q   Q.    E Q.      Q.    Q   E Q.    Q.      Q.    Q   Q.    E Q.
E||-------------------------|-------------------------|-------------------------|-------------------------|
B||-------------0-----2-----|-3-----3---2-----0-------|-------------------------|-------------------------|
G||-------1-----------------|-------------------2-----|-2---------1-------------|-2---------1-------------|
D||-2-----2-----------2-----|-------2-----------2-----|-4-----2---2-------2-----|-4-----2---2-------2-----|
A||-------------------------|-------------------------|-------------------------|-------------------------|
E||-0-----------0-----------|-0---------0-----0-------|-0-----------0-----------|-0---------0-----0-------|

    |-3-| |-3-| |-3-| |-3-|   |-3-| |-3-| |-3-| |-3-|   |-3-| |-3-| |-3-| |-3-|   |-3-| |-3-| |-3-| |-3-|
    Q.    Q.    Q.    Q.      Q.    Q   Q.    E Q.      Q.    Q   E Q.    Q.      H       E Q.    E Q.
E||-------------------------|-------------------------|-------------------------|-------------------------|
B||-------------0-----2-----|-3-----3---2-----0-------|-3---------2-------------|-3---------2-------------|
G||-------1-----------------|-------------------2-----|-2-----2---2-------2-----|-2---------2-------------|
D||-2-----2-----------2-----|-------2-----------2-----|-------------------------|-------------------------|
A||-------------------------|-------------------------|-0-----------0-----------|-0---------0-------------|
E||-0-----------0-----------|-0---------0-----0-------|-------------------------|-----------------4-2-----|

    |-3-| |-3-| |-3-| |-3-|   |-3-| |-3-| |-3-| |-3-|   |-3-| |-3-| |-3-| |-3-|   |-3-| |-3-| |-3-| |-3-|
    Q.    Q.    Q.    Q.      H       E Q.    E Q   E   Q.    Q.    Q.    Q.      H       E Q.    E E E E
E||-------------------------|-----------------------0-|-------------------2-----|-4---------2-------------|
B||-------------------2-----|-2---------0-----0-2-----|-------2-----5-----------|---------------------0-2-|
G||-------------2-----------|-4-----------------------|-------------------------|-------------------------|
D||-4-----4-----------4-----|-------------------------|-------4-----------4-----|-------------------6-----|
A||-------------------------|-2---------2-----0-------|-------------------------|-2---------2-----0-------|
E||-2-----------2-----------|-------------------4-----|-2-----------2-----------|-------------------4-----|

    |-3-| |-3-| |-3-| |-3-|   |-3-| |-3-| |-3-| |-3-|   |-3-| |-3-| |-3-| |-3-|   |-3-| |-3-| |-3-| |-3-|
    Q.    Q.    Q   E Q.      Q.    Q   E Q   E Q   E   Q.    Q.    Q.    Q.      Q.    Q   E Q   E Q.
E||-0-----0---------0-7-----|-4---------------------0-|-------------------------|-0---------------3-2-----|
B||-0-----0---------0-9-----|-5---------------0-2-----|-5-----3-----1-----3-----|-5-----3---3-1-----3-----|
G||-------------------------|-------------1-----------|-------5-----------5-----|-------------------------|
D||-------2-----------------|-------2-----------2-----|-------------------------|-0-----------0-----------|
A||-------------------7-----|-------------------------|-3-----------3-----------|-------------------------|
E||-0-----------0-----------|-0---------0-----0-------|-------------------------|-------------------------|

    |-3-| |-3-| |-3-| |-3-|   |-3-| |-3-| |-3-| |-3-|   |-3-| |-3-| |-3-| |-3-|   |-3-| |-3-| |-3-| |-3-|
    Q.    Q.    Q   E Q.      Q.    Q   E E E E Q   E   Q.    Q.    Q.    Q.      Q.    Q.    Q   E Q.
E||-0-----0---------0-7-----|-4-----0-----3-2-0-----0-|-------------------------|-0-----------------------|
B||-0-----0---------0-9-----|-5-----------------3-----|-5-----3-----1-----3-----|-5-----3-----1---1-3-----|
G||-------------------------|-------------------------|-------5-----------5-----|-------------------------|
D||-------2-----------------|-------2-----------2-----|-------------------------|-0-----------0-----------|
A||-------------------7-----|-------------------------|-3-----------3-----------|-------------------------|
E||-0-----------0-----------|-0---------0-----0-------|-------------------------|-------------------------|

    |-3-| |-3-| |-3-| |-3-|   |-3-| |-3-| |-3-| |-3-|
    Q.    Q.    Q.    Q   E   Q   E Q   E Q   E Q.
E||-0-----0-----------------|-0---0-2---2-4---4-7-----|
B||-0-----0-----------------|-------------------------|
G||-------------------------|-------------1-----4-----|
D||-------2-----------2-----|-2-----4-----------------|
A||-------------------------|-------------------------|
E||-0-----------0---------0-|-------------------------|

    |-3-| |-3-| |-3-| |-3-|   |-3-| |-3-| |-3-| |-3-|   |-3-| |-3-| |-3-| |-3-|   |-3-| |-3-| |-3-| |-3-|
    Q   Q   E E Q.    Q.      Q.    E Q   Q.    Q.      Q   Q   E E Q.    Q.      Q.    E Q   Q.    Q.
E||-----0-----0-4-----2-----|-------------------0-----|-----0-----0-4-----0-----|-4-----5-----4-----0-----|
B||-------------------------|-0-----0-----2-----------|-------------------------|-------------------------|
G||-2-----------------------|-1-------1---------------|-------------------------|-------------------------|
D||---------4---------------|-------------------------|-0-------0---------------|-2-------2---------------|
A||-------------------------|-------------------------|-------------------------|-------------------------|
E||-------------------------|-------------------------|-------------------------|-------------------------|

    |-3-| |-3-| |-3-| |-3-|   |-3-| |-3-| |-3-| |-3-|
    Q   Q   E E Q.    Q.      Q.    Q.    Q.    Q.
E||-----2-----2-2-----4-----|-6-----4-----2-----4-----|
B||-------------------------|-------2-----2-----2-----|
G||-------------------------|-7-----------------------|
D||-------------------------|-------------------------|
A||-4-------4---------------|-------------------------|
E||-------------------------|-------------------------|

    |-3-| |-3-| |-3-| |-3-|   |-3-| |-3-| |-3-| |-3-|   |-3-| |-3-| |-3-| |-3-|   |-3-| |-3-| |-3-| |-3-|
    Q.    Q.    Q   E Q.      Q.    Q   E Q   E Q   E   Q.    Q.    Q.    Q.      Q.    Q.    Q   E Q.
E||-2-----2---------2-9-----|-6-----2-----------2---2~|-------------------------|-2~--------------5-4-----|
B||-2-----2---------2-11----|-7---------------2-4-----|-7-----5-----3-----5-----|-------5-----3-----5-----|
G||-------------------11----|-------------3-----------|-------7-----------7-----|-------------------------|
D||-4-----------4-----------|-4-----4---4-----4-------|-0-----------0-----------|-2-----------2-----------|
A||-------------------------|-------------------------|-------------------------|-------------------------|
E||-------------------------|-------------------------|-------------------------|-------------------------|

    |-3-| |-3-| |-3-| |-3-|   |-3-| |-3-| |-3-| |-3-|   |-3-| |-3-| |-3-| |-3-|   |-3-| |-3-| |-3-| |-3-|
    Q.    Q.    Q   E Q.      Q.    Q   E E E E Q   E   Q.    Q.    Q.    Q.      Q.    Q.    Q   E Q.
E||-2-----2---------2-9-----|-6-----2-----5-4-2-0---2~|-------------------------|-2~--------------5-4-----|
B||-2-----2---------2-11----|-7-----------------7-----|-7-----5-----3-----5-----|-------5-----3-----5-----|
G||-------------------11----|-------------------------|-------7-----------7-----|-------------------------|
D||-4-----------4-----------|-4---------4-----4-------|-0-----------0-----------|-2-----------2-----------|
A||-------------------------|-------------------------|-------------------------|-------------------------|
E||-------------------------|-------------------------|-------------------------|-------------------------|

    |-3-| |-3-| |-3-| |-3-|   |-3-| |-3-| |-3-| |-3-|   |-3-| |-3-| |-3-| |-3-|   |-3-| |-3-| |-3-| |-3-|
    Q.    Q.    Q   E Q.      Q   E Q   E Q   E Q.      Q.    Q.    Q   E Q   E   Q.    Q.    Q   E Q.
E||-2-----2---------2-9-----|-6-----4---2-6---9-------|-2-----0---------2-4---2-|-7---------------2-5-----|
B||-2-----2---------2-11----|-7---7-7-----------7-----|-------7-----3-----5-----|-7-----5-----3-----5-----|
G||-------------------11----|-------------------------|-------7-----------7-----|-------------------------|
D||-4-----------4-----------|-4---------4-------------|-0-----------0-----------|-------------2-----------|
A||-------------------------|-----------------9-------|-------------------------|-7-----------------------|
E||-------------------------|-------------------------|-------------------------|-------------------------|

    |-3-| |-3-| |-3-| |-3-|   |-3-| |-3-| |-3-| |-3-|
    Q.    Q.    Q   E Q.      Q.    W               E x3
E||-2-----2---------2-9-----|-6-----2-----------------||
B||-2-----2---------2-11----|-7-----------------------||
G||-------------------11----|------------------------*||
D||-4-----------4-----------|-------4----------------*||
A||-------------------------|-------------------------||
E||-------------------------|-------------------------||
Login or Register to remove this ad.