Ads

The Moon (Duck Tales) Guitar Tab

Submitted: Oct 20, 2012 by N0Stars

5
Average: 5 (5 votes)
Download | Listen
Game: Duck Tales
Composer(s): Yoshihiro Sakaguchi
Style: Arrangement, Artificial harmonics, Fingerstyle, Natural harmonics, Percussion

AutoScroll: Slow | Medium | Fast
Ducktales - The Moon

Composed by Hiroshige Tonomura

Arranged for Guitar by N0Stars

Gtr I (D A D G B E), (Optional: Capo on 4th Fret)

  Q=140
  Gtr I
  E E E E E E E E   E E E E E E E E   E E E E E E E E   E E E E E E E E
|-------0-----0---|-3---3-2---2-0---|-------0-----0---|-3---3-2---2-0---|
|-----3-----3-----|---------------3-|-----3-----3-----|---------------3-|
|---2-----2-----2-|---2-----2-------|---2-----2-----2-|---2-----2-------|
|-0---------------|-----------------|-0---------------|-----------------|
|-----------------|-----------------|-----------------|-----------------|
|-----------------|-----------------|-0---------------|-----------------|


  Q.   Q.   Q    +Q   Q  Q  Q    Q.   E Q  Q    +H      Q  Q
|--------------|---------0--3--|-3----2-2-----|---------0------|
|-3------------|------3--------|-1---------1--|-(1)--------3---|
|-2------------|---------------|-0----0-------|---------0------|
|-0---------0--|-(0)-----0-----|--------------|----------------|
|------0-------|------------0--|-3------------|------------3---|
|-0------------|---------------|--------------|----------------|


  Q.   Q.   Q    +Q   Q  Q    Q    Q.   Q.   Q    +H       Q   Q
|-5------------|-------------10--|--------------|---------12--10--|
|-3---------3--|-(3)-------------|--------------|-----------------|
|-2---------4--|-(4)---------10--|--------------|-----------------|
|------4-------|-----------------|-----------8--|-(8)-------------|
|-2------------|------2----------|------8-------|----------8------|
|--------------|---------4-------|-8------------|--------------8--|


  E E E E E E E E   E E E E E E E E
|-5-----0-----0---|-3---3-2---2-0------|
|-----3-----3-----|---------------3----|
|---2-----2-----2-|---2-----2----------|
|---0-0-0-0-0-0-0-|-0-0-0-0-0-0-0-0----|
|-----------------|--------------------|
|-0---------------|--------------------|


    E E E E E E E E   E E E E E E E E   Q  E E E E E E   E E E E E E E E
||------------------|-----------------|-0--2-------0---|-3---3-2---2----|
||o-----------------|-----3---2---3---|-3----3---3-----|-------------2-3|
||------------0-2-2-|---2-----------2-|--------------2-|---2------------|
||----------4-------|-------4---4-----|----------------|----------------|
||o-------------0---|-4---4---4---4---|-2------2---2---|-0---0---0---0--|
||--0-0-x-0-0-------|-----------------|----------------|----------------|


  E E E a E Q  E E   E E E E E E E E   Q  Q  E E E E    Q  Q  E E E E
|-5------------0---|-------------0---|---------0------|---------------|
|-7----------------|-8---8-7---7-----|-3---------3-2--|-------2-------|
|-----6-6h7-7------|-------------7-7-|-2-----------2--|---------2-----|
|---7------------7-|---7-----7-------|-2-----------2--|-----------2---|
|------------------|-----------------|-0--0--0---0----|-0--0--0---0-4-|
|-5---5--------5---|-6-----------6---|----------------|---------------|


  Q  Q  E E E E   Q  Q  E E E E   Q  E E Q  Q    Q  Q  E E E E
|---------------|-----------0---|-3----2-2-----|-------5---3---|
|---------------|-------3---1---|-3------3-----|-------3-----3-|
|-------------2-|---------------|-0------------|-------3-3-----|
|-4-------2-0---|---------0---2-|--------------|---------------|
|-5--5--5---5---|-3--3--3---3---|-2--2---2--2--|-1--1--1---1---|
|-0-------------|---------------|--------------|---------------|


  E E E E E E Q    E E E E E E E E   E E E E E E E E   E E E E E E E E
|-2-3-2----------|---0-------------|-----------0-3-2-|-----------------|
|-3-----3--------|-----3-2-0-2---3-|-3-----3-----3---|-3---------------|
|-2---------2----|-----0-----------|-----3---0-------|---2-0-----------|
|----------------|-----------------|---3---------0---|-------4-0-------|
|-0---0---0---0--|-----------------|-1-----3---------|-----------0-----|
|----------------|-5---5---5---5---|-----------------|-0-----------5-4-|


  E E Q  E E E E   +E  E E E E E S S E   Q  E E E E E E   E E E E E E E E
|----------------|-------------0-1---8-|----------------|------------------|
|-3-3----5-5---1-|-(1)-----1---1-------|----------------|------------------|
|-3-3----5-5---2-|-(2)-----2-----2-0---|-0----0-------2-|------------------|
|----------------|-----2-3-------------|----3-----3-----|------------------|
|-----x--7-7-x---|-------------------8-|----------------|-0-0-x-0-0-0-x-0--|
|-5-5----------3-|-(3)---3---3---------|-5--5---5---5---|------------------|


  E E Q  E E E E   +E  E E E E E E E   E E E E E E E E   E E E E E E E E
|--------------1-|-(1)-----------1-3-|---------------5-|-----------5-5-5-|
|-3-3----5-5-----|-----1---1---1---3-|---------3---6-2-|-----------------|
|-3-3----5-5---2-|-(2)-2---2---2---0-|---------0-----2-|---------------7-|
|----------------|-------------------|-----------------|-----------------|
|-----x--7-7-x---|-------------------|-----------------|-0-0-x-0-0-0-0-0-|
|-5-5----------3-|-(3)---3---3---3---|-5-5-x-5-5-5-5---|-----------------|


                     1.
   E E E E E E E E   E E E E E E E E
|------------------|---------------------||
|-10---------------|-8---8-7---7-5-3----o||
|------7-9---7-9---|---------------------||
|----7-----7-----7-|---7-----7-----------||
|------------------|-------------3------o||
|--8-8-8-8-8-8-8-8-|-8-------7-----------||

WITH CAPO

  2.    H.=H                      Q=70
  E E E Q  E E  E   E E E  E  E E   E      E.   a  E.  Q Q +E     +W
|-----------------|-6------8-------10--|--10---10-[5]----------|----------||
|-8---8-7--7-8-10-|-----3-------5---7--|--(7)---------<7>------|----------||
|-----------------|---3-------5-----7--|--(7)---------<7>------|----------||
|---7---7---------|--------------------|-----------------------|----------||
|-----------------|-1------3--------5--|--(5)------------------|----------||
|-8-----7---------|--------------------|-----------------0-(0)-|--(0)-----||

WITHOUT CAPO

  2.    H.=H                      Q=70
  E E E Q  E E  E   E E E  E  E E   E      E.   a  E.  Q Q +E     +W
|-----------------|-6------8-------10--|--10---10s17--14-------|----------||
|-8---8-7--7-8-10-|--------------------|--------------15-------|----------||
|-----------------|-----7-------9--11--|-(11)------------------|----------||
|---7---7---------|---8------10---<12>-|-(12)------------------|----------||
|-----------------|--------------------|-----------------------|----------||
|-8-----7---------|-8-----10------<12>-|-(12)------------0-(0)-|--(0)-----||




Duration Legend
---------------
W - whole; H - half; Q - quarter; E - 8th; S - 16th; T - 32nd; X - 64th; a - acciaccatura
+ - note tied to previous; . - note dotted; .. - note double dotted
Uncapitalized letters represent notes that are staccato (1/2 duration)
Irregular groupings are notated above the duration line
Duration letters will always appear directly above the note/fret number it represents the
duration for.  Duration letters with no fret number below them represent rests.  Multi-
bar rests are notated in the form Wxn, where n is the number of bars to rest for.  Low
melody durations appear below the staff

Tablature Legend
----------------
 h   - hammer-on
 p   - pull-off
 b   - bend
 pb  - pre-bend
 r   - bend release (if no number after the r, then release immediately)
 /\  - slide into or out of (from/to "nowhere")
 s   - legato slide
 S   - shift slide
  - natural harmonic
[n]  - artificial harmonic
n(n) - tapped harmonic
 ~   - vibrato
 tr  - trill
 T   - tap
 TP  - trem. picking
 PM  - palm muting
\n/  - tremolo bar dip; n = amount to dip
 \n  - tremolo bar down
 n/  - tremolo bar up
/n\  - tremolo bar inverted dip
 =   - hold bend; also acts as connecting device for hammers/pulls
 <>  - volume swell (louder/softer)
 x   - on rhythm slash represents muted slash
 o   - on rhythm slash represents single note slash

Misc Legend
-----------
 |  - bar
||  - double bar
||o - repeat start
o|| - repeat end
*|  - double bar (ending)
 :  - bar (freetime)
 $  - Segno
 &  - Coda
Tempo markers -  = BPM(8/16=s8/s16), where s8 = swing 8ths, s16 = swing 16ths


***************************************************************************************
* Generated using Power Tab Editor by Brad Larsen - http://powertab.guitarnetwork.org *
***************************************************************************************
Login or Register to remove this ad.

12 comments on The Moon

I really do love your

I really do love your arrangements and the time put into them, but I don't think I've ever been able to smoothly play a single one of them ._.

I agree karathrow, although

I agree karathrow, although the arrangements are nice, I am not interested at all in fingerstyle or finger picking with any other songs other than acoustic and clean songs. Video game songs in my opinion sound so much better distorted or with some added effects. I would prefer all the tabs be in alternate picking style. The instant I see it's fingerstyle I just close the tab and move on trying to find another one since I'm not interested in that type of sound. :(

that wasn't really what I was

that wasn't really what I was saying at all.

I don't care what you were

I don't care what you were referring to, I was speaking about myself.

grindking said I don't care

grindking said

I don't care what you were referring to, I was speaking about myself.

"I agree karathrow"

Good fingerstyle arrangements

Good fingerstyle arrangements are hard to find. This site is an oasis in a vast, barren wasteland of poorly made tabs 5 note leads. There are electric tabs for pretty much everything, and you can just play the melody from an arrangement like this (or shift it up an octave to make it sound more like a lead electric guitar).

If you enjoy that style of

If you enjoy that style of play that's fine. Can you do regular fingerstyle playing without fingernails or finger picks? That's the stuff I don't like is what I was meaning.

You can do it with the

You can do it with the fingertips, if that's what you mean. It can't be played with a pick.

Learn a tool before you can

Learn a tool before you can say you don't like it. Otherwise, I'll just blame your dislike for a gap in your skill use with a pick versus with fingerpicks or thumbpicks.

Also, yeah you can play fingerstyle without any tools. Look.

also, thumbpicks and hybrid

also, thumbpicks and hybrid picking allows you to play any sort of fingerstyle piece quite simply while achieving the sound you want from a plectrum.

Choogly said Good fingerstyle

Choogly said

Good fingerstyle arrangements are hard to find. This site is an oasis in a vast, barren wasteland of poorly made tabs 5 note leads. There are electric tabs for pretty much everything, and you can just play the melody from an arrangement like this (or shift it up an octave to make it sound more like a lead electric guitar).

This is so true and probably the reason almost everyone playing guitar limits his play to plec picking or strumming only. If not for this site I probably wouldn't have learned fingerstyle at all. If people complain because of their lack of skill they should go back to 911tabs or something, most of the time it's not even complicated stuff and easy to tab out if it's only the melody. Now compare it to fingerstyle that involves a fair amount of knowledge about music theory.

I really don't understand the reasoning of these people, just like those who complain about stamen's tabs being to hard/complicated for them and therefore rate 1 star.

Well, they're in a minority.

Well, they're in a minority. Fingerstyle arrangements consistently get more and higher ratings than pickstyle tabs.

There are also people who rate transcriptions and pickstyle arrangements down because they aren't fingerstyle arrangements, but these people too are in a minority. People rate tabs for all sorts of reasons, and a lot of those reasons are pretty dumb. It's a not big deal, though--in the end, they're just ratings, and they don't mean very much :-)

The important thing is that we've got a place to share tabs. I think that without a place like this, a lot of these tabs wouldn't exist at all. So I'm grateful for that.