Live and Learn (Sonic Adventure 2) Bass Tab

Submitted: Sep 29, 2007 by archard (Last updated: May 07, 2008)

0
Download | Listen
Game: Sonic Adventure 2
Composer(s): Jun Senoue
Style: Transcription
Series: Sonic the Hedgehog

AutoScroll: Slow | Medium | Fast
Transcribed by Aaron Morison ([email protected])

Gtr I (E A D G)

  Q=170
 4/4
    Gtr I
  W          E E E E E E E E   +E  E E  E E +E  E   E E E E +E  E +E  E
|----------|-----------------|--------------------|----------------------|
|----------|-6-6-6-----8-6---|----------5-4-(4)-2-|---1---4-(4)-2-(2)-1--|
|----------|---------------7-|-(7)-7-7------------|-2--------------------|
|----------|-------6-7-------|--------------------|-----4----------------|

  E E E E E E E E   E E E E E E E E   +E  E E  E E +E  E   E E E E +E  E +E  E
|-----------------|-----------------|--------------------|---------------------|
|-1-1-2-2-3-3-----|-----------8-6---|----------5-4-(4)-2-|---1---4-(4)-2-(2)-1-|
|-----------------|---------------7-|-(7)-7-7------------|-2-------------------|
|-------------3-3-|-4-4-4-6-7-------|--------------------|-----4---------------|

  E E E E E E E E   S S E +S  S E H      W          E E E E E E E E
|-----------------|--------------------|----------|-----------------|
|-1-1-2-2-3-3-----|--------------------|----------|-----------------|
|-----------------|--------------------|----------|-----------------|
|-------------3-3-|-4---4-(4)----------|----------|-4-4-4-4-4-4-4-4-|

  E E E E E E Q     E  E  E  E  E  E  E  E    E  E  E  E  E  E  Q
|----------------|-------------------------|-----------------------|
|----------------|-------------------------|-----------------------|
|----------------|-------------------------|-----------------------|
|-4-4-4-4-4-4-7--|-12-12-12-12-12-12-12-12-|-12-12-12-12-12-12-11--|

  S S S S E S S S S E S S S S
|-----------------------------|
|-----------------------------|
|-----------------------------|
|-7---7---7-7---7---7-7---7---|

  E S S S S E S S S S Q     E  E  E  E  E  E  E  E
|------------------------|--------------------------|
|------------------------|--------------------------|
|------------------------|--------------------------|
|-7-7---7---7-7---7---7--|-11-11-11-11-11-11-11-11--|

   Q   Q  Q  Q    E E E E E E E E   E E E E E E Q     E  E  E  E  E  E  E  E
|---------------|-----------------|----------------|-------------------------|
|---------------|-----------------|----------------|-------------------------|
|---------------|-----------------|----------------|-------------------------|
|-11--10--9--7--|-4-4-4-4-4-4-4-4-|-4-4-4-4-4-4-7--|-12-12-12-12-12-12-12-12-|

   E  E  E  E  E  E  Q    S S S S E S S S S E S S S S
|-----------------------|-----------------------------|
|-----------------------|-----------------------------|
|-----------------------|-----------------------------|
|-12-12-12-12-12-12-11--|-7---7---7-7---7---7-7---7---|

  E S S S S E S S S S Q
|-------------------------|
|-------------------------|
|-------------------------|
|-7-7---7---7-7---7---7---|

   E  E  E  E  E  E  E  E    E  E  E  E  E  E  E  E
|-------------------------|-------------------------|
|-------------------------|-------------------------|
|-------------------------|-------------------------|
|-11-11-11-11-11-11-11-11-|-11-10-11-11-11-12-14-14-|

  E   E E   E   E E E E E E E E
|-0---0-0---0-|-----------------|
|-------------|-----------------|
|-------------|-9-9-9-9---------|
|-------------|---------7-6-4-2-|

  E E E E E E E E   E E E E E E E E   E E E E E E E E   E E E E E E E E
|-----------------|-----------------|-0-----0-0-----0-|-----------------|
|-----------------|-----------------|---2-2-----2-2---|-----------------|
|-----------------|-----------------|-----------------|-----------------|
|-4-4-4-4-4-4-4-4-|-2-2-2-2-7-6-4-2-|-----------------|-2-2-2-2-7-6-4-2-|

  E E E E E E E E   E E E E E E E E   E E E E E E E E   E E E E E E E E
|-----------------|-----------------|-0-----0-0-----0-|-----------------|
|-----------------|-----------------|---2-2-----2-2---|-----------------|
|-----------------|-----------------|-----------------|-----------------|
|-4-4-4-4-4-4-4-4-|-3-3-3-3-7-6-4-3-|-----------------|-2-2-2-2-7-6-4-2-|

  E E E E E E E E   E E E E E E E E   E E E E E E E E   E E E E E E E E
|-----------------|-----------------|-0-----0-0-----0-|---0-0-----0-0---|
|-----------------|-----------------|---2-2-----2-2---|-2-----2-2-----2-|
|-----------------|-----------------|-----------------|-----------------|
|-4-4-4-4-4-4-4-4-|-2-2-2-2-7-6-4-2-|-----------------|-----------------|

  E E E E E E E E   E E E E E E E E   W          E E E E E E E E
|-----------------|-----------------|----------|-----------------|
|-----------------|-----------------|----------|-----------8-6---|
|-----------------|-----------------|----------|---------------7-|
|-3-3-3-3-3-3-3-3-|-5-5-5-5-5-5-5-5-|----------|-4-4-4-6-7-------|

  +E  E E  E E +E  E   E E E E +E  E +E  E   E E E E E E E E   E E E E E E E E
|--------------------|---------------------|-----------------|-----------------|
|----------6-4-(4)-2-|---1---4-(4)-2-(2)-1-|-1-1-2-2-3-3-----|-----------8-6---|
|-(7)-7-7------------|-2-------------------|-----------------|---------------7-|
|--------------------|-----4---------------|-------------3-3-|-4-4-4-6-7-------|

  +E  E E  E E +E  E   E E E E +E  E +E  E   E E E E E E E E   E E E E E E E E
|--------------------|---------------------|-----------------|-----------------|
|----------6-4-(4)-2-|---1---4-(4)-2-(2)-1-|-1-1-2-2-3-3-----|-----------8-6---|
|-(7)-7-7------------|-2-------------------|-----------------|---------------7-|
|--------------------|-----4---------------|-------------3-3-|-4-4-4-6-7-------|

  +E  E E  E E +E  E   E E E E +E  E +E  E   E E E E E E E E   E E E E E E E E
|--------------------|---------------------|-----------------|-----------------|
|----------6-4-(4)-2-|---1---4-(4)-2-(2)-1-|-1-1-2-2-3-3-----|-----------8-6---|
|-(7)-7-7------------|-2-------------------|-----------------|---------------7-|
|--------------------|-----4---------------|-------------3-3-|-4-4-4-6-7-------|

  +E  E E  E E +E  E   E E E E +E  E +E  E   E E E E E E E E     Q  E S S E E
|--------------------|---------------------|-----------------|-----------------|
|----------6-4-(4)-2-|---1---4-(4)-2-(2)-1-|-1-1-2-2-3-3-----|------4-------4--|
|-(7)-7-7------------|-2-------------------|-----------------|-----------------|
|--------------------|-----4---------------|-------------3-3-|---4----4--------|

  +E  E Q  +H       E E Q  H      W          S S E +S  S E H
|-----------------|-------------|----------|--------------------|
|-(4)-2-2--(2)----|-------------|----------|--------------------|
|-----------------|-------------|----------|--------------------|
|-----------------|-2-2---------|----------|-4---4-(4)----------|

  W          E E E E E E E E   E E E E E E Q     E  E  E  E  E  E  E  E
|----------|-----------------|----------------|-------------------------|
|----------|-----------------|----------------|-------------------------|
|----------|-----------------|----------------|-------------------------|
|----------|-4-4-4-4-4-4-4-4-|-4-4-4-4-4-4-7--|-12-12-12-12-12-12-12-12-|

   E  E  E  E  E  E  Q    S S S S E S S S S E S S S S
|-----------------------|-----------------------------|
|-----------------------|-----------------------------|
|-----------------------|-----------------------------|
|-12-12-12-12-12-12-11--|-7---7---7-7---7---7-7---7---|

  E S S S S E S S S S Q
|-------------------------|
|-------------------------|
|-------------------------|
|-7-7---7---7-7---7---7---|

   E  E  E  E  E  E  E  E    Q   Q  Q  Q    E E E E E E E E       E E E E
|-------------------------|---------------|-0-----0-0-----0-|-------------|
|-------------------------|---------------|-----------------|-------------|
|-------------------------|---------------|---7-7-----7-7---|-------------|
|-11-11-11-11-11-11-11-11-|-11--10--9--7--|-----------------|-----7-6-4-2-|

  E E E E E E E E   E E E E E E E E   E E E E E E E E   E E E E E E E E
|-----------------|-----------------|-0-----0-0-----0-|-----------------|
|-----------------|-----------------|---2-2-----2-2---|-----------------|
|-----------------|-----------------|-----------------|-----------------|
|-4-4-4-4-4-4-4-4-|-2-2-2-2-7-6-4-2-|-----------------|-2-2-2-2-7-6-4-2-|

  E E E E E E E E   E E E E E E E E   E E E E E E E E   E E E E E E E E
|-----------------|-----------------|-0-----0-0-----0-|-----------------|
|-----------------|-----------------|---2-2-----2-2---|-----------------|
|-----------------|-----------------|-----------------|-----------------|
|-4-4-4-4-4-4-4-4-|-3-3-3-3-7-6-4-3-|-----------------|-2-2-2-2-7-6-4-2-|

  E E E E E E E E   E E E E E E E E   E E E E E E E E   E E E E E E E E
|-----------------|-----------------|-0-----0-0-----0-|---0-0-----0-0---|
|-----------------|-----------------|---2-2-----2-2---|-2-----2-2-----2-|
|-----------------|-----------------|-----------------|-----------------|
|-4-4-4-4-4-4-4-4-|-2-2-2-2-7-6-4-2-|-----------------|-----------------|

  E E E E E E E E   E E E E E E E E   W          E E E E E E E E
|-----------------|-----------------|----------|-----------------|
|-----------------|-----------------|----------|-----------8-6---|
|-----------------|-----------------|----------|---------------7-|
|-3-3-3-3-3-3-3-3-|-5-5-5-5-5-5-5-5-|----------|-4-4-4-6-7-------|

  +E  E E  E E +E  E   E E E E +E  E +E  E   E E E E E E E E   E E E E E E E E
|--------------------|---------------------|-----------------|-----------------|
|----------6-4-(4)-2-|---1---4-(4)-2-(2)-1-|-1-1-2-2-3-3-----|-----------8-6---|
|-(7)-7-7------------|-2-------------------|-----------------|---------------7-|
|--------------------|-----4---------------|-------------3-3-|-4-4-4-6-7-------|

  +E  E E  E E +E  E   E E E E +E  E +E  E   E E E E E E E E   E E E E E E E E
|--------------------|---------------------|-----------------|-----------------|
|----------6-4-(4)-2-|---1---4-(4)-2-(2)-1-|-1-1-2-2-3-3-----|-----------8-6---|
|-(7)-7-7------------|-2-------------------|-----------------|---------------7-|
|--------------------|-----4---------------|-------------3-3-|-4-4-4-6-7-------|

  +E  E E  E E +E  E   E E E E +E  E +E  E   E E E E E E E E   E E E E E E E E
|--------------------|---------------------|-----------------|-----------------|
|----------6-4-(4)-2-|---1---4-(4)-2-(2)-1-|-1-1-2-2-3-3-----|-----------8-6---|
|-(7)-7-7------------|-2-------------------|-----------------|---------------7-|
|--------------------|-----4---------------|-------------3-3-|-4-4-4-6-7-------|

  +E  E E  E E +E  E   E E E E +E  E +E  E   E E E E E E E E     Q  E S S E E
|--------------------|---------------------|-----------------|-----------------|
|----------6-4-(4)-2-|---1---4-(4)-2-(2)-1-|-1-1-2-2-3-3-----|------4-------4--|
|-(7)-7-7------------|-2-------------------|-----------------|-----------------|
|--------------------|-----4---------------|-------------3-3-|---4----4--------|

  +E  E Q  +H       E E Q  H      W          Q.   E +Q   Q
|-----------------|-------------|----------|----------------|
|-(4)-2-2--(2)----|-------------|----------|----------------|
|-----------------|-------------|----------|----------------|
|-----------------|-2-2---------|----------|-4----7-(7)--9--|

  +E   E  +Q    Q   Q    E E E E E E E E
|----------------------|-----------------|
|----------------------|-----------------|
|----------------------|-----------------|
|-(9)-10-(10)--11--14--|-4-4-4-4-4-4-4-4-|

  E E E E E E Q     E  E  E  E  E  E  E  E
|----------------|-------------------------|
|----------------|-------------------------|
|----------------|-------------------------|
|-4-4-4-4-4-4-7--|-12-12-12-12-12-12-12-12-|

   E  E  E  E  E  E  Q    S S S S E S S S S E S S S S
|-----------------------|-----------------------------|
|-----------------------|-----------------------------|
|-----------------------|-----------------------------|
|-12-12-12-12-12-12-11--|-7---7---7-7---7---7-7---7---|

  E S S S S E S S S S Q
|-------------------------|
|-------------------------|
|-------------------------|
|-7-7---7---7-7---7---7---|

   E  E  E  E  E  E  E  E    Q   Q  Q  Q    E E E E E E E E   E E E E E E Q
|-------------------------|---------------|-----------------|----------------|
|-------------------------|---------------|-----------------|----------------|
|-------------------------|---------------|-----------------|----------------|
|-11-11-11-11-11-11-11-11-|-11--10--9--7--|-4-4-4-4-4-4-4-4-|-4-4-4-4-4-4-7--|

   E  E  E  E  E  E  E  E    E  E  E  E  E  E  Q
|-------------------------|-----------------------|
|-------------------------|-----------------------|
|-------------------------|-----------------------|
|-12-12-12-12-12-12-12-12-|-12-12-12-12-12-12-11--|

  S S S S E S S S S E S S S S
|-----------------------------|
|-----------------------------|
|-----------------------------|
|-7---7---7-7---7---7-7---7---|

  E S S S S E S S S S Q     E  E  E  E  E  E  E  E
|------------------------|-------------------------|
|------------------------|-------------------------|
|------------------------|-------------------------|
|-7-7---7---7-7---7---7--|-11-11-11-11-11-11-11-11-|

   Q   Q  Q  Q    E E E E E E E E
|---------------|-0-----0-0-----0-|
|---------------|-----------------|
|---------------|---7-7-----7-7---|
|-11--10--9--7--|-----------------|

  Q    E E E E E E E E   E E E E E E  Q    E E E E E E E E
|----|-----------------|-----------------|-0-----0-0-----0-|
|----|-----------------|-----------------|-----------------|
|----|-----------------|-----------------|---7-7-----7-7---|
|-7--|-4-4-4-4-4-4-4-4-|-5-5-5-5-5-5-11--|-----------------|

  Q    E E E E E E E E   E E E E E E  Q    E E E E E E E E
|----|-----------------|-----------------|-0-----0-0-----0-|
|----|-----------------|-----------------|-----------------|
|----|-----------------|-----------------|---7-7-----7-7---|
|-7--|-4-4-4-4-4-4-4-4-|-5-5-5-5-5-5-11--|-----------------|

  E E E E E E E E   E E E E E E E E   W          W
|---0-0-----0-0---|-----------------|----------|------|
|-----------------|-----------------|----------|------|
|-7-----7-7-----7-|-----------------|----------|------|
|-----------------|-3-3-3-3-3-3-3-3-|-5--------|------|

  E E E E E E E E   +E  E E  E E +E  E   E E E E +E  E +E  E   E E E E E E E E
|-----------------|--------------------|---------------------|-----------------|
|-----------8-6---|----------6-4-(4)-2-|---1---4-(4)-2-(2)-1-|-1-1-2-2-3-3-----|
|---------------7-|-(7)-7-7------------|-2-------------------|-----------------|
|-4-4-4-6-7-------|--------------------|-----4---------------|-------------3-3-|

  E E E E E E E E   +E  E E  E E +E  E   E E E E +E  E +E  E   E E E E E E E E
|-----------------|--------------------|---------------------|-----------------|
|-----------8-6---|----------6-4-(4)-2-|---1---4-(4)-2-(2)-1-|-1-1-2-2-3-3-----|
|---------------7-|-(7)-7-7------------|-2-------------------|-----------------|
|-4-4-4-6-7-------|--------------------|-----4---------------|-------------3-3-|

  E E E E E E E E   +E  E E  E E +E  E   E E E E +E  E +E  E   E E E E E E E E
|-----------------|--------------------|---------------------|-----------------|
|-----------8-6---|----------6-4-(4)-2-|---1---4-(4)-2-(2)-1-|-1-1-2-2-3-3-----|
|---------------7-|-(7)-7-7------------|-2-------------------|-----------------|
|-4-4-4-6-7-------|--------------------|-----4---------------|-------------3-3-|

  E E E E E E E E   +E  E E  E E +E  E   E E E E +E  E +E  E   E E E E E E E E
|-----------------|--------------------|---------------------|-----------------|
|-----------8-6---|----------6-4-(4)-2-|---1---4-(4)-2-(2)-1-|-1-1-2-2-3-3-----|
|---------------7-|-(7)-7-7------------|-2-------------------|-----------------|
|-4-4-4-6-7-------|--------------------|-----4---------------|-------------3-3-|

  E E E E E E E E   +E  E E  E E +E  E   E E E E +E  E +E  E   E E E E E E E E
|-----------------|--------------------|---------------------|-----------------|
|-----------8-6---|----------6-4-(4)-2-|---1---4-(4)-2-(2)-1-|-8-8-8-8-9-9-----|
|---------------7-|-(7)-7-7------------|-2-------------------|-----------------|
|-4-4-4-6-7-------|--------------------|-----4---------------|-------------9-9-|

  E E E E E   +E  E E  E E +E  E   E E E E +E  E +E  E   E E E E E E E E
|-----------|--------------------|---------------------|-----------------|
|-8-9-8-6---|----------6-4-(4)-2-|---1---4-(4)-2-(2)-1-|-8-8-8-8-9-9-----|
|---------7-|-(7)-7-7------------|-2-------------------|-----------------|
|-----------|--------------------|-----4---------------|-------------9-9-|

  E E E E E   +E  E E  E E +E  E   E E E E +E  E +E  E   E E E E E E E E
|-----------|--------------------|---------------------|-----------------|
|-8-9-8-6---|----------6-4-(4)-2-|---1---4-(4)-2-(2)-1-|-8-8-8-8-9-9-----|
|---------7-|-(7)-7-7------------|-2-------------------|-----------------|
|-----------|--------------------|-----4---------------|-------------9-9-|

  E E E E E   +E  E E  E E +E  E   E E E E +E  E +E  E   E E E E E E E E
|-----------|--------------------|---------------------|-----------------|
|-8-9-8-6---|----------6-4-(4)-2-|---1---4-(4)-2-(2)-1-|-8-8-8-8-9-9-----|
|---------7-|-(7)-7-7------------|-2-------------------|-----------------|
|-----------|--------------------|-----4---------------|-------------9-9-|

  Q  E S S E E   +E  E Q  +H       E E Q  H      W
|--------------|-----------------|-------------|------|
|----4-------4-|-(4)-2-2--(2)----|-------------|------|
|--------------|-----------------|-------------|------|
|-4----4-------|-----------------|-2-2---------|------|

  E   E     E  H    E E   E E E E E E E E
|---------|-----------0-|-0-0-0-0-0-0-0---*|
|---------|-------------|-----------------*|
|---------|-------------|-----------------*|
|-2---2---|-2--2--------|-----------------*|
Login or Register to remove this ad.