Chasing Drive (Sonic Adventure 2) Guitar Tab

Submitted: Oct 05, 2008 by Mighty (Last updated: Nov 14, 2009)

4
Average: 4 (1 vote)
Download | Listen
Game: Sonic Adventure 2
Composer(s): Jun Senoue
Style: Transcription
Series: Sonic the Hedgehog

AutoScroll: Slow | Medium | Fast
Chasing Drive ...for Kart
by: Jun Senoue
Sonic Adventure 2

s - slide
h - bend half step 
w - bend whole step
v - vibrato

|------------6---8---8w8-6-8-10-------------6---8---6-6-6-6-6--|
|-10-6-----6---5---8-------------10-6-----6---5---8------------|
|------5-7----------------------------5-7----------------------|
|--------------------------------------------------------------|
|--------------------------------------------------------------|
|--------------------------------------------------------------|

|------------6---8---8w8-6-8-10-------------6----|
|-10-6-----6---5---8-------------10-6-----6---5--|
|------5-7----------------------------5-7--------|
|------------------------------------------------|
|------------------------------------------------|
|------------------------------------------------|

|-------------------------------------------------------------------------|
|-10s6-10h-h10-6-8-----------------10s6-10h-h10-6-8-----------------------|
|------------------8---s8-787-----------------------8---s8-787------------|
|--------------------8--------8-----------------------8--------8----------|
|-------------------------------8--------------------------------8--------|
|-------------------------------------------------------------------------|

|---------------------------------------------------------|
|-------------8-------8-8-10---------------8------8-8-10--|
|-s7-10-9v-10---10-------------s7-10-9v-10---10-7---------|
|------------------10-------------------------------------|
|---------------------------------------------------------|
|---------------------------------------------------------|

|----------------------------------|
|--------11-10---------8-13-11-----|
|------7-------10----9---------12--|
|-8-10------------10---------------|
|----------------------------------|
|----------------------------------|

|-------------------------------------------------------------------------|
|-10s6-10-11-12h-8-----6-11-10-6-6-8--10s6-10-11-12h-8-----6-11-10-6-6-8--|
|-------------------s7----------------------------------s7----------------|
|-------------------------------------------------------------------------|
|-------------------------------------------------------------------------|
|-------------------------------------------------------------------------|

good job!

[email protected]
Login or Register to remove this ad.