Ads

Pioneer 2 (Phantasy Star Online) Guitar Tab

Submitted: Mar 12, 2008 by Loztprophet (Last updated: Mar 12, 2008)

0
Download | Listen
Game: Phantasy Star Online
Composer(s): Fumie Kumatani, Hideaki Kobayashi
Style: Transcription

AutoScroll: Slow | Medium | Fast
Standard Tuning. Repeat parts as required.

e-----------------------------------------------------------------|
b-----------------------------------------16----------------------|
g--14--15------------------20------14--15-----------------20------|
d----------16-(19-20-19-20----20)------------(19-20-19-20----20)--|
a-----------------------------------------------------------------|
e-----------------------------------------------------------------|

e-----------------------------------------------------------------|
b-----------------------------------------------------------------|
g--------------18~~---20------------------------------------------|
d-----18-20-18-----------21-20-18----16---------------------------|
a--20-----------------------------20------------------------------|
e-----------------------------------------------------------------|

e-----------------------------------------------------------------|
b-----------------------------------------------------------------|
g--------------18~~--20-23-24-20~~--------------------------------|
d-----18-20-18----------------------------------------------------|
a--20-------------------------------------------------------------|
e-----------------------------------------------------------------|

e-----------------------------------------------------------------|
b-----------------------------------------------------------------|
g--16-18-20-------------------------------------------------------|
d-----------18-20-18--------------------------18-20-16------------|
a--------------------18-20-(15)---16-18-16-18---------------------|
e-----------------------------------------------------------------|

e-----------------------------------------------------------------|
b-----------------------------------------------------------------|
g--11--16--------19/22--22-21-19-18~~-----------------------------|
d---------20------------------------------------------------------|
a-----------------------------------------------------------------|
e-----------------------------------------------------------------|

e-----------------------------------------------------------------|
b-------------------------21/17/15/12/9/2~~~----------------------|
g--11--16---------------------------------------------------------|
d---------20----20-20-18------------------------------------------|
a------------20---------------------------------------------------|
e-----------------------------------------------------------------|

e-----------------------------------------------------------------|
b---------------(21-20-19-18-16)----------------------------------|
g------20-16-18---------------------------------------------------|
d--/18-----------------------------Back To Beginning--------------|
a-----------------------------------------------------------------|
e-----------------------------------------------------------------|

Login or Register to remove this ad.