Ads

Tears (DRAMAtical Murder) Guitar Tab

Submitted: Oct 27, 2015 by MechaKrauser

5
Average: 5 (2 votes)
Download | Listen
Game: DRAMAtical Murder
Composer(s): Yuki Hayashi
Style: Arrangement, Fingerstyle

AutoScroll: Slow | Medium | Fast
Tears
from DRAMAtical Murder
performed by Kanako Ito
music by Toshimichi Isoe
tab by MechaKrauser

Drop D tuning, capo on 2
4/4 time, 148bpm

*M = Fret note with middle finger
*Thmb = Fret bass note with Thumb over top of fret board
*Bar 5 = Bar 5th fret with index finger starting from this note


   [Soft Intro]
     E  E  E  E  E  E  E  E     E  E  E  E  E  E  E  E     E  E  E  E  E  E  E  E   
E||--------------------------|--------------------------|--------------------------|
B||--------------------------|--------------------------|--------------1-----------|
G||--------------2-----------|--------------2-----------|--3--------3-----------3--|
D||--0--------0-----------0--|--3--------3-----------3--|-----3-----------3--------|
A||-----0-----------0--------|-----3-----------3--------|--1-----1-----1-----1-----|
D||--0-----0-----0-----0-----|--3-----3-----3-----3-----|--------------------------|


  E  E  E  E  E  E  E  E     E  E  E  E  E  E  E  E     E  E  E  E  E  E  E  E   
--------------------------|--------------------------|--------------------------|
--------------1-----------|--------------------------|--------------------------|
--3--------3-----------3--|--------------2-----------|--------------2-----------|
-----3-----------3--------|--0--------0-----------0--|--3--------3-----------3--|
--1-----1-----1-----1-----|-----0-----------0--------|-----3-----------3--------|
--------------------------|--0-----0-----0-----0-----|--3-----3-----3-----3-----|


                                                      [Full Intro]
                                         ^  >  ^                                 
  E  E  E  E  E  E  E  E     E  E  E  E  E  E  E  E     E  E  E  E  E  E  E  E   
--------------------------|--------------------------|--------------------------|
--------------3-----------|--------------------------|--------------------------|
--0--------0-----------0--|--0--------0--0-----0-----|--------------2-----------|
-----0-----------0--------|-----0--------0-----0-----|--0--------0-----------0--|
--------------------------|--------------x--x--x-----|-----0-----------0--------|
--5-----5-----5-----5-----|--5-----5-----5--x--5-----|--0-----0-----0-----0-----|


  E  E  E  E  E  E  E  E     E  E  E  E  E  E  E  E     E  E  E  E  E  E  E  E   
--------------------------|--------------------------|--------------------------|
--------------------------|--------------1-----------|--------------1-----------|
--------------2-----------|--3--------3-----------3--|--3--------3-----------3--|
--3--------3-----------3--|-----3-----------3--------|-----3-----------3--------|
-----3-----------3--------|--1-----1-----1-----1-----|--1-----1-----1-----1-----|
--3-----3-----3-----3-----|--------------------------|--------------------------|


  E  E  E  E  E  E  E  E     E  E  E  E  E  E  E  E     E  E  E  E  E  E  E  E   
--------------------------|--------------------------|--------------------------|
--------------------------|--------------------------|--------------3-----------|
--------------2-----------|--------------2-----------|--0--------0-----------0--|
--0--------0-----------0--|--3--------3-----------3--|-----0-----------0--------|
-----0-----------0--------|-----3-----------3--------|--------------------------|
--0-----0-----0-----0-----|--3-----3-----3-----3-----|--5-----5-----5-----5-----|



                       *M  [Verse 1]                                                  
  >       >                                                                 
  Q    E  E  E   E  E  E     Q    E  E  Q    Q       H        E   E  E  E   
--------------------------|-----------------------|------------------------|
--------------------------|-----------------------|--1------------------1--|
--0----------2p--0-----2--|----------2--L---------|-----------2p--0--------|
--0----0------------3-----|------------------3----|------------------3-----|
--------------------------|-----------------------|------------------------|
--5-------3---------------|--0----L---------------|------------------------|


  *M                                                                     
  Q    Q    Q    Q       H        E  E  E  E     Q    E  E  Q    E   E   
----------------------|-----------------------|-------------------------|
-------1----L---------|--3--------3--1--L-----|-------------------------|
----------------------|-----------------------|-------------------------|
-----------------3----|--------------------3--|----------3--L----0h--3--|
----------------------|-----------------------|--1----L-----------------|
--3-------------------|-----------------------|-------------------------|


                                      ^                             
  W                   Q    E  E  Q    Q       H        E  E  E  E   
-------------------|-----------------------|-----------------------|
-------------------|------------------1----|--L--------------------|
-------------------|-----------------------|-----------2--0-----2--|
-------------------|----------3--L----3----|--L--------------3-----|
--1----------------|--1----L---------------|-----------------------|
-------------------|-----------------------|-----------------------|


  Q    E  E  Q    Q       H        E  E  E  E     Q    E  E  Q    Q     
-----------------------|-----------------------|-----------------------|
-----------------------|--1--------L--------1--|----------1--L---------|
----------2--L---------|-----------------2-----|-----------------------|
------------------3----|--------------3--------|------------------3----|
-----------------------|-----------------------|-----------------------|
--0----L---------------|-----------------------|--3----L---------------|


  Q    E  E  E  E  E  E     Q    E  E  Q    E   E     W                 
-------------------1--0--|-------------------------|-------------------|
--3----L--1--L--3--------|-------------------------|-------------------|
-------------------------|-------------------------|-------------------|
-------------------------|----------3--L----0h--3--|-------------------|
-------------------------|--1----L-----------------|--1----------------|
-------------------------|-------------------------|-------------------|


                                            [Pre-Chorus]
                  ^                           >    ^    >    ^       >    ^    >    ^     
  Q    E  E  Q    Q       W                   Q    Q    Q    Q       Q    Q    Q    Q     
-----------------------|-------------------|--1---------0---------|----------------------|
------------------1----|--L----------------|----------------------|--1-------------------|
-----------------------|-------------------|----------------------|------------2---------|
----------3--L----3----|--L----------------|-------2---------2----|-------3---------3----|
--1----L---------------|-------------------|--0----0----0----0----|--1----1----1----1----|
-----------------------|-------------------|----------------------|----------------------|


  >    ^    >    ^       >    ^    >    ^       >                     
  Q    Q    Q    Q       Q    Q    Q    Q       H        E  E  E  E   
----------------------|----------------------|-----------------------|
------------1---------|----------------------|-----------------------|
--0-------------------|--2---------0---------|--2--------L--2--------|
-------2---------2----|-------2---------2----|--0--------L-----0-----|
--3----3----3----3----|--4----4----4----4----|--------------------0--|
----------------------|----------------------|--0--------------------|


  ^                   >                              ^                      
  Q    E  E  E  E  E  E     Q    Q    E  E  E  E     Q    E  E  Q    E  E   
-------------------0--1--|------------------------|------------------------|
----------------------3--|---------------1--------|------------------------|
--0-------------3--------|------------------3-----|------------------3--2--|
----------2--L-----------|-------3----L--------3--|--3-------3--L----------|
--3----3-----------------|--1---------------------|--1----1----------------|
-------------------------|------------------------|------------------------|


                          ^                        >          ^         
  H        E  E  E  E     H        E  E   E  E     Q    E  E  H         
-----------------------|------------------------|--0-------3--1--------|
-----------------------|---------------------1--|----------1--3--------|
--------------2--------|--0--------L--2h--3-----|-------3--------------|
-----------------0-----|--------------3---------|--3----------3--------|
--------------------0--|--3--------L------------|--1-------------------|
--0--------L-----------|------------------------|----------------------|


                          [Chorus]
  ^                          >             ^           >             ^        
  H        E  E   E  E       Q    E  E  E  E  E  E     Q    E  E  E  E  Q     
---------------------0--||---1-------0--L--1--L-----|--5-------6--L--5--L----|
--------------1h--3--1--||---3-------------3--L-----|--6---------------------|
------------------------||*-------2--------------2--|-------5--------5--L----|
--3--------L------------||*----------------0--------|------------------------|
--1--------L------------||--------------------------|------------------------|
------------------------||---0----------------------|--3---------------------|


  >             ^           >             ^          >             ^         
  Q    E  E  E  E  E  E     Q    E  E  E  E  Q       Q    E  E  E  E  E  E   
-------------------------|--5-------8--L--5--L----|--1-------0--L--1--L--3--|
--6-------5--L--6--L--6--|--5---------------------|--3----------------------|
--7-------------0--L-----|----------------5--L----|----------------3--L-----|
-------0--------------0--|-------7----------------|-------3--------------3--|
-------------------------|--0---------------------|--1----------------------|
--5----------------------|------------------------|-------------------------|


                                                   /1st Ending
  >             ^          >             ^           >             ^           
  Q    E  E  E  E  Q       Q    E  E  E  E  E  E     Q    E  E  E  E  E  E     
--5-------6--L--5--L----|-------------------------|--------------------------||
--6---------------------|--6-------5--L--6--L--6--|--2-------2--L--3--L--3---||
-------0--------5--L----|--7-------------0--L-----|--2----------------------*||
------------------------|-------0--------------0--|-------2--------2--L-----*||
--3---------------------|-------------------------|--0-----------------------||
------------------------|--5----------------------|--------------------------||


 /2nd Ending               [Guitar Solo 1]
  >             ^            >                            >                       
  Q    E  E  E  E   E  E     E  E  E  E  E  E  E  E       Q    E  E  E  E  E  E   
--------------------------|--5-----------------------|---------------------------|
--2-------2--L--2h--3-----|--3-----------------------|--1g3----------------------|
--2-------------2---------|--------------2-----------|------------------2--0--2--|
-------2---------------2--|--------0--------------0--|------------3--------------|
--0-----------------------|-----0-----0-----0--------|---------------------------|
--------------------------|--0-----------0-----0-----|----3----3-----3-----------|


  ^                                                                               
  E  E  E  E  E  E  E  E     E  E  E  E  E  E  E  E     Q    E  E  E    E  E  E   
--------------------------|--------------------------|---------------------1--3--|
--------------1-----------|--------------1-----------|----------------1g3--------|
--0--------3-----------3--|--3--------3-----------3--|---------------------------|
-----3-----------3--------|-----3-----------3--------|--0----------0-------------|
--1-----1-----1-----1-----|--1-----1-----1-----1-----|----------0----------------|
--------------------------|--------------------------|--0----0-------------------|


  >          >                  ^                          >       >                
             |---3--|                                                               
  Q    E  E  E   E  E  E  E     E  E  E  E  E  E  E  E     Q    E  E  E   E  E  E   
--1----3--1--3h--5--L--------|--8--5--------------------|--------------------------|
-----------------------------|--------8--6--------------|--------------------------|
-----------------------------|--------------------------|--0----------2p--0-----2--|
--------------------------3--|--------5--------------5--|--0----0------------3-----|
-----------------------------|-----------------5--------|--------------------------|
--3----------3---------3-----|--5-----------5-----5-----|--5-------3---------------|



 [Verse 2]
  Q    E  E  Q    Q       H        E  E  E  E     Q    Q    Q    Q     
-----------------------|-----------------------|----------------------|
-----------------------|--1-----------------1--|-------1----L---------|
----------2--L---------|-----------2--0--------|----------------------|
------------------3----|-----------------3-----|-----------------3----|
-----------------------|-----------------------|----------------------|
--0----L---------------|-----------------------|--3-------------------|


  H        E  E  E  E     Q    Q    Q    E   E     W                 
-----------------------|------------------------|-------------------|
--3--------3--1--------|------------------------|-------------------|
-----------------2-----|------------------------|-------------------|
--------------------3--|-------3----L----0h--3--|-------------------|
-----------------------|--1---------------------|--1----------------|
-----------------------|------------------------|-------------------|


                  ^                                                      
  Q    E  E  Q    Q       H        E   E  E  E     Q    E  E  Q    Q     
-----------------------|------------------------|-----------------------|
------------------1----|--L---------------------|-----------------------|
-----------------------|-----------0h--2-----2--|----------2--L---------|
----------3--L----3----|--L---------------3-----|------------------3----|
--1----L---------------|------------------------|-----------------------|
-----------------------|------------------------|--0----L---------------|


  H        E  E  E  E     Q    E  E  Q    Q       Q    E  E  E  E  E  E   
-----------------------|-----------------------|-------------------1--0--|
--1--------L--------1--|----------1--L---------|--3----L--1--L--3--------|
-----------------2-----|-----------------------|-------------------------|
--------------3--------|------------------3----|-------------------------|
-----------------------|-----------------------|-------------------------|
-----------------------|--3----L---------------|-------------------------|


                                                                ^                         
  Q    E  E  Q    E   E     W                   Q    E  E  Q    Q       W                 
-------------------------|-------------------|-----------------------|-------------------|
-------------------------|-------------------|------------------1----|--L----------------|
-------------------------|-------------------|-----------------------|-------------------|
----------3--L----0h--3--|-------------------|----------3--L----3----|--L----------------|
--1----L-----------------|--1----------------|--1----L---------------|-------------------|
-------------------------|-------------------|-----------------------|-------------------|


 [Pre-Chorus 2]
  >    ^    >    ^       >    ^    >    ^       >    ^    >    ^     
  Q    Q    Q    Q       Q    Q    Q    Q       Q    Q    Q    Q     
--1---------0---------|----------------------|----------------------|
----------------------|--1-------------------|------------1---------|
----------------------|------------2---------|--0-------------------|
-------2---------2----|-------3---------3----|-------2---------2----|
--0----0----0----0----|--1----1----1----1----|--3----3----3----3----|
----------------------|----------------------|----------------------|


  >    ^    >    ^       >                       ^                   >   
  Q    Q    Q    Q       H        E  E  E  E     Q    E  E  E  E  E  E   
----------------------|-----------------------|-------------------0--1--|
----------------------|-----------------------|----------------------3--|
--2---------0---------|--2--------L--2--------|--0-------------3--------|
-------2---------2----|--0--------L-----0-----|----------2--L-----------|
--4----4----4----4----|--------------------0--|--3----3-----------------|
----------------------|--0--------------------|-------------------------|


                           ^                                              
  Q    Q    E  E  E  E     Q    E  E  Q    E  E     H        E  E  E  E   
------------------------|------------------------|-----------------------|
---------------1--------|------------------------|-----------------------|
------------------3-----|------------------3--2--|--------------2--------|
-------3----L--------3--|--3-------3--L----------|-----------------0-----|
--1---------------------|--1----1----------------|--------------------0--|
------------------------|------------------------|--0--------L-----------|


  ^                          >          ^           ^                      
  Q    E  E  E  E   E  E     Q    E  E  H           H        E  E   E  E   
--------------------------|--0-------3--1--------|---------------------0--|
-----------------------1--|----------1--3--------|--------------1h--3--1--|
--0-------0--L--2h--3-----|-------3--------------|------------------------|
-------2--------3---------|--3----------3--------|--3--------L------------|
--3-----------------------|--1-------------------|--1--------L------------|
--------------------------|----------------------|------------------------|


 [Chorus 2]
    >             ^           >             ^          >             ^         
    Q    E  E  E  E  E  E     Q    E  E  E  E  Q       Q    E  E  E  E  E  E   
|---1-------0--L--1--L-----|--5-------6--L--5--L----|-------------------------|
|---3-------------3--L-----|--6---------------------|--6-------5--L--6--L--6--|
|*-------2--------------2--|-------5--------5--L----|--7-------------0--L-----|
|*----------------0--------|------------------------|-------0--------------0--|
|--------------------------|------------------------|-------------------------|
|---0----------------------|--3---------------------|--5----------------------|


  >             ^          >             ^           >             ^        
  Q    E  E  E  E  Q       Q    E  E  E  E  E  E     Q    E  E  E  E  Q     
--5-------8--L--5--L----|--1-------0--L--1--L--3--|--5-------6--L--5--L----|
--5---------------------|--3----------------------|--6---------------------|
----------------5--L----|----------------3--L-----|-------0--------5--L----|
-------7----------------|-------3--------------3--|------------------------|
--0---------------------|--1----------------------|--3---------------------|
------------------------|-------------------------|------------------------|


                          /1st Ending                 /2nd Ending
  >             ^           >             ^             >             ^         
  Q    E  E  E  E  E  E     Q    E  E  E  E  E  E       Q    E  E  E  E   Q     
-------------------------|--------------------------||-------------------------|
--6-------5--L--6--L--6--|--2-------2--L--3--L--3---||--2----L--2--L--2h--3----|
--7-------------0--L-----|--2----------------------*||--2----L--2--L--2--------|
-------0--------------0--|-------2--------2--L-----*||-------------------------|
-------------------------|--0-----------------------||--0----------------------|
--5----------------------|--------------------------||-------------------------|


 [Interlude]
  >                                                                    
  Q    E  E  Q    Q       H          H           Q    E  E  Q    Q     
--5--------------------|-----------3g5--------|--5--------------------|
--3--------------------|--3-------------------|-----------------------|
----------3--L---------|--0-------------------|----------0--L---------|
-------0----------0----|----------------------|-------2----------2----|
-----------------------|----------------------|--0--------------------|
--5--------------------|----------------------|-----------------------|


                             >                        ^                   
  H          Q    E  E       E  E  E  E  Q    Q       H        Q    Q     
-----------1g3----L--1--|--1g3--1--L---------------|---------------------|
--2---------------------|--------------------------|---------------------|
--2---------------------|--------------------------|--2--------L---------|
------------------------|-------------3--L----0----|--0--------L----3----|
------------------------|----1---------------------|--1--------L---------|
------------------------|--------------------------|---------------------|


                                  *M                                               
                             ^                                                     
  E  E  E  E  Q    E   E     E    E  E  E  Q    E   E     Q    E   E  Q    E   E   
-----------1--L-----------|----------------------------|--------------------------|
--------1----------1h--3--|--1-------------------------|--------------------------|
--------------------------|-----3g2--0-----0-----------|--------------------------|
-----3--------------------|-------------3-------0h--3--|-------0h--3--L----0h--3--|
--3-----------------------|--3-------------------------|--1-----------------------|
--------------------------|----------------------------|--------------------------|


  ^                                                       ^             ^            
  E  E  E  E  E  E  Q         E  E  Q    E    E  E  E     E  E  E  S  S E  E  E  E   
-----------------1--L----|-------1--L------------------|----------------------------|
-----------1--3----------|--1g3---------------------3--|----------------3-----------|
-----0--2----------------|------------------0g1--1-----|--0-------------2-----------|
--3----------------------|----3------------------------|--3--0-----0h-3----3--0--3--|
--1----------------------|----3------------------------|--1-----1-------1-----1-----|
-------------------------|-----------------------------|----------------------------|


 [Main Guitar Solo]
  >         ^                       >    ^                       >        ^               
  |---3--|                |--3-|                        |-3-|                             
  E   E  E  Q    E  E  E  S S  S    Q    E  E  E  E  E  S S S    E  E  E  E  E  E  E  E   
--4h--5--L------------------3p-1-|--3---------------------1---|--1-----------------------|
--3------------------------------|--------------------------3-|-----3--------------1--3--|
-----------------------2---------|-------0--------0-----------|--------------------------|
------------0-------0-----0------|----------2--L-----2--------|-----------3--L--3--------|
-----------------0---------------|--3----3--------------3-----|--1-----1--1--L-----------|
--0---------0--------------------|----------------------------|--------------------------|


           ^                 >         >                      
                             |---3--|                         
  E  E  E  E  E  E  E  E     E   E  E  E  E    E  E  E    E   
--1-----1--3--L-----------|----------------------------------|
--3--3-----------------3--|--1h--3--L--3--3--1g3--3--3--1g3--|
--------------------2-----|--2---------2------------------2--|
-----------3--L--3--------|----------------------------------|
--1--------1--L-----------|----------------------------------|
--------------------------|--0---------0---------------------|


  >       >                      ^           >                                         
                                             |--3--|                                   
  E  E    E  E  E    E  E  E     E  E  E  E  S  S  S E  Q       H        E  E   E  E   
------------------------------|-----1--3--1--3h-5p-3-L--L----|---------------------0--|
--3--3--1g3--3--3--1g3--L--1--|--3---------------------------|--------------1h--3--1--|
--0-------0----------0--------|--3---------------------------|------------------------|
------------------------------|------------------------------|------------------------|
--3-------3-------------------|--1-----------1---------------|--1--------L------------|
------------------------------|------------------------------|------------------------|


 [Final Chorus]
    >             ^           >             ^          >             ^         
    Q    E  E  E  E  E  E     Q    E  E  E  E  Q       Q    E  E  E  E  E  E   
|---1-------0--L--1--L-----|--5-------6--L--5--L----|-------------------------|
|---3-------------3--L-----|--6---------------------|--6-------5--L--6--L--6--|
|*-------2--------------2--|-------5--------5--L----|--7-------------0--L-----|
|*----------------0--------|------------------------|-------0--------------0--|
|--------------------------|------------------------|-------------------------|
|---0----------------------|--3---------------------|--5----------------------|


  >             ^          >             ^           >             ^        
  Q    E  E  E  E  Q       Q    E  E  E  E  E  E     Q    E  E  E  E  Q     
--5-------8--L--5--L----|--1-------0--L--1--L--3--|--5-------6--L--5--L----|
--5---------------------|--3----------------------|--6---------------------|
----------------5--L----|----------------3--L-----|-------0--------5--L----|
-------7----------------|-------3--------------3--|------------------------|
--0---------------------|--1----------------------|--3---------------------|
------------------------|-------------------------|------------------------|


                          /1st Ending                 /2nd Ending
  >             ^           >             ^             >             ^          
  Q    E  E  E  E  E  E     Q    E  E  E  E  E  E       Q    E  E  E  E   E  E   
-------------------------|--------------------------||--------------------------|
--6-------5--L--6--L--6--|--2-------2--L--3--L--3---||--2-------2--L--2h--3-----|
--7-------------0--L-----|--2----------------------*||--2-------------2---------|
-------0--------------0--|-------2--------2--L-----*||-------2---------------2--|
-------------------------|--0-----------------------||--0-----------------------|
--5----------------------|--------------------------||--------------------------|


 [Outro]             *slides                                                             
  >                             >                             ^                       
  Q    E  E  E  E    E  E       E  E  E  E  E    E  E   E     Q    E  E  E  E  E  E   
--5------------------------|-------------------------------|-------------------------|
--3------------------------|-------------------------------|-------------------------|
-------------------1g2--1--|--1g2--0--2--------1g2--0h--2--|-------------------------|
-------------0-------------|-------------3-----------------|--0-------0--L-----0-----|
----------0-----0----------|-------------------------------|--1----1--------1-----3--|
--0----0-------------------|----3-----------3--------------|-------------------------|


  ^                         >                                  ^                
  E  E  E  E  E  E  Q       E  E  Q    E  E  E  E     E  E  E  E  E  E  E   E   
-----------------0--1----|--5----------------------|-----1--3--1-----3--1h--3--|
-------------------------|--3-------------------1--|--3--------3---------------|
-------------------------|----------------0--2-----|---------------------------|
--0----------------------|--------0----3-----------|---------------------------|
--1--3--0----------------|-----0-------------------|---------------------------|
-----------5--3----------|--0----------------------|--3-----------3------------|


                      *Bar 5                                 
  >              >                >         ^              
  |---3--|                                                 
  E   E  E  Q    E    E  E  E     E  E   E  E  E  E  Q     
--3h--5--L--L----8--8g5--------|--5-----------------------|
-------------------------8--6--|-----8p--5--8-------------|
--0--------------0-------------|------------7-----6--7----|
------------0----L-------------|--------------------------|
-------------------------------|--------------------------|
--5--------------5-------------|--5------------5-----5----|


                                *Thmb                             
  >             >                        >       >       >      
  E  E  E  E    Q    E    E     E   E    E  E    E  E    E  E   
--5--------------------------|---------------------------------|
--------3-----1g3-------1g3--|--L------1g3-----1g3-----1g3-----|
-----2-----2---------2-------|------2-------2-------2-------2--|
-----------------------------|---------------------------------|
-----------------------------|---------------------------------|
--0--------------------------|--3------------------------------|


    >               >                                      
    E  E    E  E    Q    E  E     E  E  E  E  E  E  E  E   
-------------------------------|--------------------------|
--1g3-----1g3-----1g3----------|--------------1-----------|
-------2-------2------------3--|--3--------3-----------3--|
-------------------------------|-----3-----------3--------|
----1--------------------1-----|--1-----1-----1-----1-----|
-------------------------------|--------------------------|


    >           >                    >                           
                |---3--|                                         
    E  E  E  E  E   E  E  E  E       E   S  S E  E  E  E  E  E   
-------1--3--1--3s--5--L--------|--3g5p--3p-1----1--L-----------|
--1g3---------------------------|-------------3-----------------|
--------------------------------|----------------------0-----0--|
-----------------------------0--|-------------------------3-----|
--------------------------0-----|-------------------------------|
----0-----0---------------------|----3--------3-----------------|


  >         >                    ^    >                                     
  |---3--|                                                                  
  E   E  E  E  E  E  E  E  E     Q    E  E  Q    Q        W                 
------------------------------|------------------------|-------------------|
------------------------------|------------------------|-------------------|
--5h--7--L--5-----0-----0-----|--0---------------------|--2----------------|
---------------7-----7-----3--|--0-------3--L----L\----|--0----------------|
------------------------------|------------------------|--0----------------|
--5---------5-----------------|--5----5----------------|--0----------------|


  W                  
-------------------||
-------------------||
--L----------------||
--L----------------||
--L----------------||
--L----------------||




Duration Legend
---------------
W - whole
H - half
Q - quarter
E - 8th
S - 16th
T - 32nd
X - 64th
. - note dotted
|-n-|  - n-tuplets


Tablature Legend
----------------
L - tied note
x - dead note
g - grace note
(n) - ghost note
> - accentuded note
NH - natural harmonic
AH - artificial harmonic
TH - tapped harmonic
SH - semi harmonic
PH - pitch harmonic
h - hammer on
p - pull off
b - bend
br - bendRelease
pb - preBend
pbr - preBendRelease
brb - bendReleaseBend
\n/ - tremolo bar dip
\n - tremolo bar dive
-/n - tremolo bar Release up
/n\ - tremolo bar inverted dip
/n - tremolo bar return
-\n - tremolo bar Release down
S - shift slide
s - legato slide
/ -  slide into from below or out of upwards
\ -  slide into from above or out of downwards
~ - vibrato
W - wide vibrato
tr - trill
TP - tremolo picking
T - tapping
S - slap
P - pop
< - fade in
^ - brush up
v - brush down
Login or Register to remove this ad.