Ads

Side-Crawler's Dance (Dragon's Curse) Guitar Tab

Submitted: May 21, 2012 by auriplane (Last updated: May 21, 2012)

5
Average: 5 (1 vote)
Download | Listen
Game: Dragon's Curse
Composer(s): Shinichi Sakamoto
Style: 2 or more instruments, Alternate picking, Transcription

AutoScroll: Slow | Medium | Fast
                             Dragon's Curse - Beach GUITAR TAB
                               Composed by Shinichi Sakamoto

                          Tabbed by Auriplane ([email protected])


              Segno
      E   E        H         E   E   E   E      S  S  E   Q     Q     E   E
E||----------||---------------------12------|--------------------------------|
B||------12--||---14--------14--------------|--12-14-12--12-----L------------|
G||--14------||*----------------------------|------------------------14--13--|
D||----------||*----------------14------14--|--------------------------------|
A||----------||-----------------------------|--------------------------------|
E||----------||-----------------------------|--------------------------------|


   E.   S  E.   S  E   E   E   E      Q     Q     E   Q     E    
----------------------------------|-----------------------------|
------------------------------12--|--15----14----12--------12---|
--11------11------11--13--14------|------------------14--------*|
-------14------14-----------------|----------------------------*|
----------------------------------|-----------------------------|
----------------------------------|-----------------------------|


   Q.      S  S  E   E   E   E      Q.      S  S  E   E   E   E      Q.      S  S  E   E   E   E
--12------12-12-12--------------|--12------12-12-12--------------|--12------12-12-12--------------|
--------------------15--14--15--|--------------------15--14--15--|--------------------15--14--12--|
--------------------------------|--------------------------------|--------------------------------|
--------------------------------|--------------------------------|--------------------------------|
--------------------------------|--------------------------------|--------------------------------|
--------------------------------|--------------------------------|--------------------------------|


   E.   S  H.               Q.      S  S  E   E   E   E      Q.      E   Q     E   E
------------------------|--------------------------------|--12------------------------|
--12---14---------------|--------------------12--14--15--|----------12--12----14--12--|
----------14------------|--10------10-10-14--------------|----------------------------|
------------------------|--------------------------------|----------------------------|
------------------------|--------------------------------|----------------------------|
------------------------|--------------------------------|----------------------------|


   S  S  S  S  S  S  S  S  S  S  S  S  S  S  S  S     Q     Q     Q     E   E
--------------------------------------12----12-14-|--12------------------------|
-----------------------12-14-12-14-15----15-------|--------15----14--------12--|
--11----11-13-14-13-14----------------------------|--------------------14------|
-----14-------------------------------------------|----------------------------|
--------------------------------------------------|----------------------------|
--------------------------------------------------|----------------------------|


     H         E   E   E   E      S  S  E   Q     Q     E   E      E.   S  E.   S  E   E   E   E
|---------------------12------|--------------------------------|----------------------------------|
|---14--------14--------------|--12-14-12--12-----L------------|------------------------------12--|
|*----------------------------|------------------------14--13--|--11------11------11--13--14------|
|*----------------14------14--|--------------------------------|-------14------14-----------------|
|-----------------------------|--------------------------------|----------------------------------|
|-----------------------------|--------------------------------|----------------------------------|


1st ending                     2nd ending
   Q     Q     E   Q     E        Q     Q     Q     Q         Q.      E   E   E   Q
-----------------------------||--------------------------||----------------------12----|
--15----14----12--------12---||--15----14----------------||--------------14--15--------|
------------------14--------*||--------------14----------||--13------13----------------|
----------------------------*||--------------------15----||----------------------------|
-----------------------------||--------------------------||----------------------------|
-----------------------------||--------------------------||----------------------------|


   Q.      E   E   E   E   E      H         Q     E   E      H.            S  S  S  S
--------------14--12----------|--------------------------|----------------------------|
----------------------15--14--|--15--------------15--12--|----------------------------|
--14------14------------------|------------14------------|--13------------13----------|
------------------------------|--------------------------|-------------------16-14-12-|
------------------------------|--------------------------|----------------------------|
------------------------------|--------------------------|----------------------------|


   E   Q     E   E   Q     E      Q     Q     Q     E   S  S     H.            E   E
------------------------------|------------------------------|------------------------|
--------------------------14--|--15----14--------------------|------------------------|
------------13--14--16--------|--------------16----14--13-14-|--16------------16--14--|
--14--16----------------------|------------------------------|------------------------|
------------------------------|------------------------------|------------------------|
------------------------------|------------------------------|------------------------|

                  Da segno
   H.            E   E 
------------------------||
--------------------12--||
--13------------14------||
------------------------||
------------------------||
------------------------||




Duration Legend
---------------
W - whole
H - half
Q - quarter
E - 8th
S - 16th
. - note dotted


Tablature Legend
----------------
L - tied note
Login or Register to remove this ad.