A Quiet Village (Dragon Quest VIII) Guitar Tab

Submitted: Jun 25, 2012 by diralark

4
Average: 4 (3 votes)
Download | Listen
Game: Dragon Quest VIII
Composer(s): Koichi Sugiyama
Style: Arrangement, Fingerstyle
Series: Dragon Quest

AutoScroll: Slow | Medium | Fast
          A Quiet Village ~ Town Theme (Symphonic)  from Dragon Quest VIII

 Music by Koichi Sugiyama   >>  sequenced by Ivor Evilen  >>  guitar arr. by Diralark

 Ost : http://www.youtube.com/watch?v=IAsQaZTEA-o

Guitar, let ring, Tempo 90, Dropped D Tuning

            ^                                                                        
      E  E  E  E  E  E  E  E     E  E  E  E  E  E  E  E     E  E  E  E  E  E  E  E   
E||---------------2-----0-----|--------------------------|--------------0-----------|
B||---------------------------|--3-----2-----3-----0-----|--------------------2-----|
G||*-----0--2-----------------|--------------------------|--------0-----------------|
D||*--4-----------------------|--------------------------|--2--4--------------------|
A||------------0-----0-----0--|-----0-----2-----2-----2--|--------4--0-----0-----0--|
D||---------0-----------0-----|--4-----0-----------0-----|--------------------------|


  E  E  E  E  E  E  E  E     E  E  E  E  E  E  E  E     E  E  E  E  E  E  E  E   
--------------------------|--------------2-----0-----|--------------------3-----|
--0-----------0-----------|--------------------------|--3-----2-----3-----------|
--------2-----------------|-----0--2-----------------|--------------------------|
--------------------4-----|--4-----------------------|--------------------------|
-----0-----0-----0-----0--|-----------0-----0-----0--|-----0-----2-----2-----2--|
--------0-----------0-----|--------0-----------0-----|--------0-----------0-----|


                 Da Coda   1.____________              2.______________      
  E  E  E  E  E  E  E  E     E  E  E  E  E  E  Q         E  E  E  E  E  E  Q       E  Q    E  E  E   
--------------------------|--------------------------||-------------------------|-------------------|
--0--2--3-----------3-----|--------3-----------3-----||--------3----------------|-------------------|
--------------------------|-------------------------*||-------------------------|-------------------|
-----------------0--------|-----0-----------0-------*||-----0-----------0--4----|--L--0----0-----0--|
--------------0-----------|--2-----------2-----------||--2-----------2----------|-------------4-----|
--------0--4--------3--6--|--------2--5--------------||--------2--5--------0----|--L--4-------------|


  II      -]                                                                                         
  ^          ^             ^            ^           ^          ^             ^                       
  E  Q    E  E  Q    E     E  Q    Q    E  E  E     E  Q    E  E  Q    E     E  Q    E  E  E  E  E   
------------------------|------------------------|-------------0----------|-------------------------|
------------------------|------------------------|------------------------|--3-------------3--2--0--|
-------------2----------|------------------------|--0---------------------|-------------------------|
--2---------------------|--4------------4--3--4--|------------------------|-------------------------|
-----2----2-----0----0--|--2------------0--------|-----2----2--0--0----0--|-----0----0--------------|
--2--2----2--4--4-------|-----4----4-------------|--2--2----2-----2----2--|--0--0----0--0-----------|


                           ^                                 ^                 ^              
  E  E  Q    Q       E  E  Q    Q       E  E  E  E  E  E     Q    Q    Q       Q    H         
------------------|------------------|--------------------|--3--------------|--2-------------|
-----0------------|------------------|-----------0--2--3--|------------0----|--2-------------|
--2-----2---------|--0--2--0---------|-----0--2-----------|-----------------|--3-------------|
-------------4----|-------------2----|--4-----------------|-------0----0----|--2-------------|
--------0---------|--------2---------|--------0-----------|-----------------|-------4--------|
--4---------------|--2---------------|--4-----------2-----|--2--------------|----------------|


D.C. al Coda             CODA
  ^                                                                                               
  Q    H                 E  E  E  E  E  E  E  E     E  E  E  E  E  E  Q       H        H          
--1-------------|-----|--------------------------|-------------------------|--------------------||
--2-------------|-----|--------3-----------3-----|--------3----------------|--------------------||
--2----2--------|-----|--------------------------|-------------------------|--------------------||
----------------|-----|-----0-----------0--------|-----1--------------0----|--L-----------------||
--0-------------|-----|--2-----------2-----------|--1--------------0-------|--L-----------------||
----------------|-----|--------2--5--------1--5--|--------0--2--4----------|--L-----------------||

Legend
---------------
H - half
Q - quarter
E - 8th
. - note dotted
L - tied note
^ - brush up
D.C. al Coda - play from the Begining of the tab to the "Da Coda" mark then jump to "CODA" part

NOTE
-----
CAPO 5 to sync with the Symphonic Version
Login or Register to remove this ad.