Heaven's Prayer (Dragon Quest IX) Guitar Tab

Submitted: Apr 09, 2012 by diralark

5
Average: 5 (6 votes)
Download | Listen
Game: Dragon Quest IX
Composer(s): Koichi Sugiyama
Style: Arrangement, Fingerstyle
Series: Dragon Quest

This song is also called Angelic Land

AutoScroll: Slow | Medium | Fast
                 Heaven's Prayer / Angelic Landfrom Dragon Quest IX

  Music by Koichi Sugiyama >> official piano score >> guitar arr. by Diralark

U have to hear the awesome symphonic performance (set 720p) :)  http://www.youtube.com/watch?v=rgRpgrW394k

Nylon Guitar (Capo 3), let ring

   (T)empo:92

     E  E  E  E  E  E  E  E     E  E  E  E  E  E  E  E     E  E  E  E  E  E  E  E   
E||--------------------------|--------------------------|--------------------------|
B||--------------------------|--------------------------|--------------------------|
G||-----0--------0--------0--|-----0--------0--------0--|-----0-----------0--------|
D||--------2--------2--------|--------2--------2--------|--2-----2-----4-----4-----|
A||-----------2--------2-----|-----------2--------2-----|-----------2-----------5--|
E||--0-----------------------|--0-----------------------|--0-----------------------|


  E  E  E  E  E  E  E  E     E  E  E  E  E  E  E  E     E  E  E  E  E  E   E  E     E  E  E  E  E  E  E  E   
--------------------------|--------------------------|---------------------------|--------------------------|
--------------------------|--0-----------------0-----|--0------------------------|--------------------------|
-----0-----------0--------|-----0--------0--------0--|-----2--2--0---------------|--------------------------|
--2-----2-----4-----4-----|--2-----2--------2--------|--------2-----4---------2--|--0-----0--2--4--------2--|
-----------2-----------5--|-----------2--------2-----|--0--------------0h--3-----|-----3-----------0--3-----|
--0-----------------------|--0-----------------------|---------------------------|--2-----------------------|


  E  E  E  E  E  E  E  E     E  E  E  E  E  E  Q       E  E  E  E  E  E  E  E     E  E  E  E  E  E  E  E   
--------------------------|-------------------------|--0-----------2--3--2-----|--0-----------2--3--2-----|
--------------------------|--------------------0----|-----------------------3--|--0-----------------0--3--|
--------------------0--2--|-------------------------|-----0--------------------|-----0--------0-----------|
-----------1--2--4--------|--4--1--------1----------|--------2-----4-----------|--------2-----4-----------|
--2--2--3-----------------|--2--------2--------2----|-----------2--------------|-----------2--------------|
-----2--------------------|--------2--------2-------|--0-----------------------|--0-----------------------|


                                                                              II    II                       
  E  E  E  E  E  E  E  E     E  E  E  E  E  E  E  E     E  E  E  E  E  E   E  E     E  E  E  E  E  E  E  E   
--7-----------------7-----|--7--5--5--3--2--------0--|-----------0--2------------|-----------------2--3--5--|
--0--------------------0--|--------------------------|--3--1--3------------------|-----------4--5-----------|
-----0--------0-----0-----|-----------------------0--|---------------------------|-----4--5--------5--------|
--------------------------|--------2-----4-----------|------------------------2--|-----4--------------------|
--------7--------7--------|--0--------------0--3-----|--------3--------0h--3-----|--2--------2--------------|
--0--------7--------------|--------------------------|--2------------------------|--------------------------|


  --                                                                                                        
  E   E  E  E  E  E  Q       E  E  E  E  E  E  E  E     E  E  E  E  E  E  E  E     E  E  E  E  E  E  E  E   
--2-----------------------|-----------------0--------|--------------------------|--------------------------|
--------------------------|--1-----------------3--1--|--0-----------------0-----|-----------------1--------|
---------------------4----|--------0-----------------|--------------------------|--2-----------------4--2--|
------------------4-------|-----------2--4-----------|--------4--0--2-----------|--------2-----1-----------|
--2h--6-----2--6----------|--0--3--------------3-----|-----2-----------2-----2--|-----0-----3-----0--------|
---------2----------------|--------------------------|--3-----------------3-----|--2-----------------------|


                                 ^                      ^                       ^                    
  S  S S  S E  E  E  E  E  E     Q    Q    Q    Q       Q    Q    Q     Q       Q    Q    Q    Q     
------------------------------|-------0----2----3----|--5----7----8----10----|-------2----3----5----|
------------0-----------------|----------------------|-----------------------|----------------------|
-------0h-2-0-----------------|--2-------------------|--5--------------------|--0-------------------|
--5p-4------------0--------2--|----------------------|--0--------------------|----------------------|
---------------2--------2-----|--0-------------------|-----------------------|----------------------|
--0------------------4--------|----------------------|-----------------------|--3-------------------|


[3/4]
  ^                                                                                                
  Q    Q    Q    Q       E  E  E  E  E  E     Q    H           E  E  E  E  E  E     Q    H         
--7----5----3---------|--------------------|----------------|--------------------|--0----L--------|
-----------------5----|--3--3-----3-----3--|--0----L--------|--3--3-----3-----3--|--0----L--------|
--5-------------------|--2--2-----2-----2--|--0----L--------|--2--2-----2-----2--|--0----L--------|
----------------------|--4--4-----4-----4--|----------------|--4--4-----4-----4--|----------------|
--3-------------------|--2-----------2-----|----------------|--2-----------------|----------------|
----------------------|--------------------|--0-------------|--------------------|--0-------------|


                                  [4/4]
  ^                 ^                 ^                          ^                          
  Q    Q    Q       Q    Q    Q       E  E  E   E  E.  E  E.     E  E  E   E  E  E  E   E   
-------7----5----|--2----0---------|--------------------------|----------------------------|
--1--------------|------------3----|--0-----------------------|--0---------------0--3s--0--|
--0--------------|--2--------------|-------------------2------|----------------------------|
--2--------------|--0--------------|-----2--4p--2--4----------|-----1--4p--1--4------------|
--3--------------|--2--------------|--2-----------------------|--2-------------------------|
-----------------|-----------------|--------------------------|----------------------------|


T:94                        T:96
     >  >  >     >  >  >     >  >  >  >  >  >  >         >  >  >  >  >  >  >  >     >  >  >  >  >  >  >  >   
  E  E  E  E  E  E  E  E     E  E  E  E  E  E  Q         E  E  E  E  E  E  E  E     E  E  E  E  E  E  E  E   
--------------------------|-------------------------||---------------------------|--------------------------|
--------------------------|-----0--3--0-----0-------||---------------0--1--0-----|--------------------------|
--0-----------2-----------|--0-----------1----------||*--2--------------------0--|--------------------------|
--------------------------|--0-----------0-----2----||*--------2--------------0--|--2-----2-----------2-----|
--------2--------0--3--0--|-------------------------||---0--3-----3--------2-----|--0--3-----3--0--3-----3--|
--0--3-----3--2-----------|--0-----------0----------||---------------0--3--------|--------------------------|


  >  >  >  >  >  >  >  >     >  >  >  >  >  >  >  >     >  >  >  >  >  >  >  >     >  >  >  >  >  >  >  >   
  E  E  E  E  E  E  E  E     E  E  E  E  E  E  E  E     E  E  E  E  E  E  E  E     E  E  E  E  E  E  E  E   
--------------------------|--0-----------------0-----|--0-----------------------|--------------------------|
--------------0--1--0-----|--------------------------|-----3--3--1--0-----------|--------------0-----------|
--2--------------------0--|--------------------------|-----------------------2--|--0-----0--2--------------|
--------2--------------0--|--------2-----------2-----|--0-----------0-----------|--0--3-----------0--------|
--0--3-----3--------2-----|--0--3-----3--0--3-----3--|--------0-----------0--3--|--------------2--------0--|
--------------0--3--------|--------------------------|-----1-----------1--------|--------1-----------1-----|


                           1._________                     2._______ T:95
  >  >  >  >  >  >  >  >     >  >  >  >  >    >  >  > >         >  >  >              
  E  E  E  E  E  E  E  E     E  E  E  E  Q    S  S  S S      E  E  E  E  E  E  Q     
--------------------------|------------------------------||--------------------0----|
-----------------0--1--3--|--0---------------------------||--0--------------0-------|
-----------1--2-----------|---------------------------0-*||-----1--------1----------|
-----2--4-----------0-----|-------------------0h-2h-4---*||-----------2-------------|
--------------------------|--------2---------------------||--------2----------------|
--0--4--------1-----------|--0--4-----4--0---------------||--0----------------------|


T:94
  I                                                                              
  E  E  E  E  E  E  E  E     E  E  E  E  E  E  E  E     E  E  E  E  E  E  E  E   
--1--------------5--3--1--|--0-----------------0-----|-----------------1--0-----|
--------1-----0-----------|--------0-----------------|--3-----------------0--3--|
-----------2-----0--------|-----------0--2-----------|--------2-----1-----------|
--0--3--------------------|-----2-----------2-----2--|-----0-----3-----0-----0--|
--------------------------|--3-----------------3-----|--2-----------------------|
--------------------------|--------------------------|--------------------------|


                                                        ^                      ^                    
  S  S S  S E  E  E  E  E  E     Q    Q    Q    Q       Q    Q    Q    Q       Q    Q    Q    Q     
------------0-----------------|----------------------|-------0----1----3----|----------------------|
--1p-0-1h-3-1-----------------|------------0----1----|--3-------------------|-------0----1----3----|
------------------0--------2--|-------2--------------|----------------------|--0-------------------|
-------2-------2--------2-----|--0-------------------|----------------------|----------------------|
--0------------------4--------|----------------------|----------------------|--3-------------------|
------------------------------|----------------------|--3-------------------|----------------------|


                     [3/4]
  ^                                           ^                                    ^             
  Q    Q    Q    Q       E  E  E  E  E  E     H.              E  E  E  E  E  E     H.            
--0-------------------|--3--------3-----3--|--0------------|--3--------3-----3--|--5------------|
-------3----1---------|--------------------|---------------|--------------------|---------------|
--2--------------2----|-----0-----0--------|--2------------|-----0-----0-----0--|--2------------|
--3-------------------|--2--2-----2-----2--|--2------------|--2--2-----2-----2--|--2------------|
----------------------|--2--2--------------|--0------------|--2--2--------------|--0------------|
----------------------|--0-----------------|---------------|--0-----------------|---------------|


                                  [3/4]                                     T:98
  ^                 ^                 ^                          ^                           
  Q    Q    Q       Q    Q    Q       E  E  E   E  E.  Q    S    E  E  E  E  Q    S  S  S S  
-------0---------|-----------------|--------------------------|-----------------------------|
------------3----|--0--------------|--------------------------|--0--------------------------|
--2--------------|-------2----0----|--------------------------|---------------------------0-|
--3--------------|-----------------|--2----------------0----L-|-------------------0h-2h-4---|
-----------------|-----------------|-----0--2p--0--2----------|--------2--------------------|
-----------------|--0--------------|--0-----------------------|--0--4-----4--0--------------|


 SEGNO
  E  E  E  E  E  E  E  E     E  E  E  E  E  E  E  E     E  E  E  E  E  E  E  E     E  E  E  E  E  E  E  E   
--------------------------|--------------------0-----|--------------------------|--------------------------|
--------------0--1--0-----|--------------------------|--------------0--1--0-----|--------------------------|
--2--------------------0--|--------------------------|--2--------------------0--|--------------------------|
-----2--2--2--------------|--2-----2--2-----2--2--2--|--------2--2--------------|--2-----2--2-----2--2--2--|
--0--3--3--3-----2--2--2--|--0--3--3--3--0--3--3--3--|--0--3--3--3-----2--2--2--|--0--3--3--3--0--3--3--3--|
--------------0--3-----3--|--------------------------|--------------0--3--------|--------------------------|


                                                                                                   Da Segno
  E  E  E  E  E  E  E  E     E  E  E  E  E  E  E  E     E  E  E   E  E.  Q    S    E  E  E  E  E.  Q    S  
--------------------------|--------------------------|--------------------------|-------------------------|
-----------1--0-----------|--------------0-----------|--------------------------|-------------------------|
-----------------------2--|--0-----0--2--------------|--------------------------|-------------------------|
--0-----------------------|-----3--------------------|--2----------------0----L-|------------------2----L-|
-----0--0--0-----0--0--0--|-----0-----0--2--0--0--0--|-----0--2p--0--2----------|--------2-----2----------|
-----1--1--1-----1--1--1--|-----1-----1-----1--1--1--|--0-----------------------|--0--4-----4-------------|


T:87           T:85               T:83
                                   III          --]              Da Capo        
                            ^                          ^                  
  Q    E  E  E  E  E  E     Q.     E   E  E  E  E      W                  
-------3--1--------------|---------6---3------------|-------------------||
-------------3--1--------|----------------6--3------|-------------------||
--3----------------0-----|--0-------------------3---|--0----------------||
--0-------------------3--|--0-----------------------|--0----------------||
-------------------------|--3-----------------------|--2----------------||
-------------------------|--4----------------4------|-------------------||

Legend
---------------
W - whole
H - half
Q - quarter
E - 8th
S - 16th
. - note dotted
L - tied note
> - accentuded note
h - hammer on
p - pull off
^ - brush up

Nota : Capo is used for comfort
Login or Register to remove this ad.